Oops, an error
Loading. Please wait.

La Pajita Tab

62 views 1 this week
no commentswrite comment
1 2 3 4 5
3 more votes to show rating
add to favorites
launch autoscroll
font size
0
reset
how to read this tab
guitar tuner
Autoscroll
slow
fast
+/-
esc
set tempo
stop
Help us to improve Ultimate-Guitar.com Take our survey!
×
Intro:

E/-----------------------------------------------------2--
A/-----------------------------------------------------2--
D/-0--------------0-------------0-------------0--------2--
G/---4---4-----4----4---4-----4---4---4-----4---4---4--4--
B/-----3-----3--------3-----3-------3-----3-------3----3--
E/---------0--------------2-------------5--------------5--


E/----------------------------------------0------------
A/-0-----------0-1------------2------------------------
D/-----------------------------------------------------
G/---1-------1------0-------0---4-------4---1-------1--
B/-----2---2----------2---2-------3---3-------0---3----
E/-------0--------------0-----------5-----------0------
   Esta que era una niña de cera

E/----------------------------------------0------------
A/-0-----------0-1------------2------------------------
D/-----------------------------------------------------
G/---1-------1------0-------0---4-------4---1-------1--
B/-----2---2----------2---2-------3---3-------0---3----
E/-------0--------------0-----------5-----------0------
   Pero no era una niña de cera

E/-----------------------------------------------------------
A/-------------0-----------0-----3-----4-----------2---------
D/-0---------------------------------------------------------
G/---2-------2---1-------1---2-----2-----3-------3---4------4
B/-----3---3-------2---2-------2-----0-----2---2-------3---3-
E/-------2-----------1-----------------------2-----------5---
   Era una       gavilla    parada      en la era

E/--------------------------0------------
A/-2-----------2-------------------------
D/---------------------------------------
G/---4-------4---4-------4----1-------1--
B/-----3---3-------3---3--------0---3----
E/-------4-----------2------------0------

E/----------------------------------------0------------
A/-0-----------0-1------------2------------------------
D/-----------------------------------------------------
G/---1-------1------0-------0---4-------4---1-------1--
B/-----2---2----------2---2-------3---3-------0---3----
E/-------0--------------0-----------5-----------0------
   Pero no era una gavilla

E/----------------------------------------0------------
A/-0-----------0-1------------2------------------------
D/-----------------------------------------------------
G/---1-------1------0-------0---4-------4---1-------1--
B/-----2---2----------2---2-------3---3-------0---3----
E/-------0--------------0-----------5-----------0------
   Sino la flor, tiesa de la maravilla

E/-----------------------------------------------------------
A/-------------0-----------0-----3-----4-----------2---------
D/-0---------------------------------------------------------
G/---2-------2---1-------1---2-----2-----3-------3---4------4
B/-----3---3-------2---2-------2-----0-----2---2-------3---3-
E/-------2-----------1-----------------------2-----------5---
   Tampoco era la flor sino que era un rayito de sol

E/--------------------------0------------
A/-2-----------2-------------------------
D/---------------------------------------
G/---4-------4---4-------4----1-------1--
B/-----3---3-------3---3--------0---3----
E/-------4-----------2------------0------
   Parada en la vidriera

E/----------------------------------------0------------
A/-0-----------0-1------------2------------------------
D/-----------------------------------------------------
G/---1-------1------0-------0---4-------4---1-------1--
B/-----2---2----------2---2-------3---3-------0---3----
E/-------0--------------0-----------5-----------0------
   No era un rayito de sol siquiera

E/----------------------------------------0------------
A/-0-----------0-1------------2------------------------
D/-----------------------------------------------------
G/---1-------1------0-------0---4-------4---1-------1--
B/-----2---2----------2---2-------3---3-------0---3----
E/-------0--------------0-----------5-----------0------
   Una pajita dentro de mis ojitos era

E/-----------------------------------------------------------
A/-------------0-----------0-----3-----4-----------2---------
D/-0---------------------------------------------------------
G/---2-------2---1-------1---2-----2-----3-------3---4------4
B/-----3---3-------2---2-------2-----0-----2---2-------3---3-
E/-------2-----------1-----------------------2-----------5---
   Alléguense a mirar como he perdido entera en este lagrimon

E/--------------------------0------------
A/-2-----------2-------------------------
D/---------------------------------------
G/---4-------4---4-------4----1-------1--
B/-----3---3-------3---3--------0---3----
E/-------4-----------2------------0------
               MI fiesta verdadera

E/-----------------------------------------------------------
A/-0---0-0---0-1---1--2---2----------2-----------0-----------
D/-----------------------------------------------------------
G/-1---1-1---0-0---0--4----4-------4---4-------4---1-------1-
B/-2---2-2---2-2---2--3------3---3-------3---3-------0---1---
E/---1-----1-----1------2------5-----------2-----------0-----

E/-0------------
A/-2------------
D/-2------------
G/-1------------
B/-0------------
E/-0------------
Suggest correction
Give kudos to tab author, rate the tab!
1 2 3 4 5
comments
print report bad tab
guest
You may want to rate the tab now too:
select rating
Wanna post a correction for this tab? Suggest correction