Oops, an error
Loading. Please wait.

Medianoche Tab

version 2
version 2

Whole song

Interactive

106 views 6 this week
no commentswrite comment
1 2 3 4 5
3 more votes to show rating
add to favorites
launch autoscroll
font size
0
reset
how to read this tab
guitar tuner
Autoscroll
slow
fast
+/-
esc
set tempo
stop
Help us to improve Ultimate-Guitar.com Take our survey!
×
INTRO:

E||--5---7--5---|--10---7---5h7--|--5-------3--|--2--0----------|--------0------|-------0--3--|
B||--5---5--5---|-------5----5---|--5-------3--|--------3--2----|-----2-----2---|----3--------|
G||--5---5--5---|--9----5----5---|--5-------2--|----------------|-----0---------|----2--------|
D||--7----------|--10------------|-------------|----------------|-----2---------|----3--------|
A||--7----------|----------------|-------------|--------------0-|--1----------1-|--2----------|
E||--5----------|----------------|-------0-----|----------------|---------------|-------------|

----2---1---|---5---4----|--5---7--5---|--10---7---5h7-|--5-------3--|--2--0------0-|---------|
----1---0---|---3---3----|--5---5--5---|-------5----5--|--5-------3--|--------3-----|--3-2-1--|
----2---1---|---5---4----|--5---5--5---|--9----5----5--|--5-------2--|--------------|---------|
------------|------------|--7----------|--10-----------|-------------|--------------|---------|
------------|------------|--7----------|---------------|-------------|--------------|---------|
--0---------|------------|--5----------|---------------|-------0-----|--------------|---------|

-------0------|--------0--3--|-----5---4-------||
----2-----2---|-----3--------|-----3---3-------||
----0---------|-----2--------|-----5---4-------||
----2---------|-----3--------|-----------------||
--1---------1-|--2-----------|-----------------||
--------------|--------------|--0--------------||


       Am E7/B          Am/C     D7
Ven a beber conmigo en doce copas
         G              C7
doce campanas esta medianoche
Am              Am/E        B9 B
escucharás al bronce congelado
   Em7                 Em6/B           E7
tañendo nuestro adiós con doce voces.
        Am E7/B          Am/C     D7
Ven a besar conmigo en doce copos
           G                 C7
la nieve amarga que fundió el invierno
           Am          Am/E       B9 
sobre la altura de mis sienes y este
Em7      Em6/B      E7
desamparado corazón que tengo.
         Dm    Dm/C           E7/B-E
Ven a morder conmigo en doce gritos
     Am           E7/B       Am/C Am/E
los labios de un dolor ya redoblado
      Am       Am7/G#           Am7/G    D
será la última boca que tú beses
      G          Bdim E
cuando vayas camino del ocaso.
         Dm    Dm/C           E7/B-E7
No bien bebas conmigo el sorbo amargo
     Am           E7/B       Am/C Am/E
en la voz gris de los metales ciegos
      Am      Am7/G#             Am7/G  D
vendrá esta medianoche repicando
      G                C7        F  F#m B7
la eternidad de nuestros dos destierros.
        Am E7/B          Am/C     D
Ven a besar conmigo en doce copos
           G                 C7
la nieve amarga que fundió el invierno
           Am          Am/E       B9 
sobre la altura de mis sienes y este
                         Am (Am/C-Am/E*)Em (Em/G-Em/B) Em B9
desamparado corazón que tengo.
 
Acordes Usados (de cuerda delgada a más gruesa)
E7/B   : 0|3|1|2|2|-
Am/E   : 0|1|2|2|-|0
Am/E*  : 0|1|2|2|-|-
B9     : 2|2|2|2|2|- 
Em6/B  : 0|2|0|2|2|-
Am/C   : 0|1|2|2|3|-
Dm/C   : 1|3|2|-|3|-
Am7/G# : 0|1|0|2|-|4
Am7/G  : 0|1|0|2|-|3
Bdim   : 0|3|2|3|2|0
Suggest correction
Give kudos to tab author, rate the tab!
1 2 3 4 5
comments
print report bad tab
guest
You may want to rate the tab now too:
select rating
Wanna post a correction for this tab? Suggest correction