Oops, an error
Loading. Please wait.

Mis Llamitas Tab

88 views 1 this week
no commentswrite comment
1 2 3 4 5
2 more votes to show rating
add to favorites
launch autoscroll
font size
0
reset
how to read this tab
guitar tuner
Autoscroll
slow
fast
+/-
esc
set tempo
stop
Help us to improve Ultimate-Guitar.com Take our survey!
×
A)

 E: ---0000000000000000000000000000000000000000000-
 B: -----------------------------------------------
 G: -----------------------------------------------
 D: ----------0---2---2---2---0--------------------
 A: --0---3-----------------------3---0---0---0---0
 E: -----------------------------------------------
        (CHARANGO)...

B)


 E: -55555555555555555555555522222222222
 B: ---------6-------6---------------3--
 G: -----5-------5-------5-------2------
 D: -7-----------------------0----------
 A: ------------------------------------
 E: ------------------------------------


    22222555555550000000000000003333333333333333-
    -----6--------------1-------1-------1-------1
    -2-------5------0-------0-------0-------0----
    ---------------------------------------------
    -------------3-------------------------------
    ---------------------------------------------


        DESPUES DEL CHARANGO VIENE ESTO:

C)

 E: ----------------------------------------
 B: ----------------------------------------
 G: ----------------------------------------
 D: -7-7-5-7-5-2-5-2-0-------0-2-5-5-2-5-2-0
 A: -------------------3-0-3----------------
 E: ----------------------------------------


  ----------------------------------------------
  ----------------------------------------------
  ----------------------------------------------
  ----------------------------------------------
  -3-0-3-5-7-5-3-0-3-5-7-5-3-0-3-5-7-5-4h-3h-2h-
  ----------------------------------------------


     ESTO HAGANLO COM LA MANO APOYADA
      EN EL PUENTE TOCANDO LAS
     CUERDAS PARA MENOR OSCILACION DE LAS CUERDAS


 AHORA VIENE EL TRINO DEL CHARANGO ..:
 AHÍ SE ARPEGIAN LAS SIGUIENTES NOTAS:

     E-A-C-Am......

  SE MANTIENEN EN: LAm , Y COMIENZAN A RASGUEAR
LA GUITARRA CON UN APAÑADO SUABE,
 MIENTRAS EL CHARANGO HACE
LO SUYO VAN LAS SIGUIENTES NOTAS :

LAm...-G-F-C--Am...-C-E-LAm

D)

 E: -0-5-3-0------------------
 B: ---------3----------------
 G: -----------4-2-0---0---0--
 D: -----------------2---2---2   G-F-C :(RASGUEADO)
 A: --------------------------
 E: --------------------------

DESPUES DEL RASGUEADO RAPIDA MENTE VIENE ESTO:

E)

 E: -----------------------
 B: -----------------------
 G: ---2-0-----------------
 D: -2----2-0--------------  D-E-Am....CADA VEZ MAS LENTO
 A: ---------2-0-----------
 E: ------------3-0-3-0-3-0

DESPUES QUE EL CHARANGO HACE LO SUYO VIENE ESTO:


F)

 E: -12--------------------12-----15--12--10-12h--12-----------
 B: ------13------------------13-------------------------------
 G: -----------12---------------12-----------------------------
 D: -----------------------------------------------------------
 A: -----------------------------------------------------------
 E: -----------------------------------------------------------


  -----5-----8--5-------------------------------------
  -----6----------8--5-----5--8-8h10---5--------------
  -----5----------------7-----------------------------
  -----7----------------------------------------------
  ----------------------------------------------------
  ----------------------------------------------------

  --------------0--3-0---0--------5-
  -------------1---1-1-3-1--------5-
  ------------0----0-0-0-0--------5-
  ---------------------2----------7-
  ----------3----------------2-7h-7-
  --------------------------0-----5-


EL CHARANGO EMPIEZA A HACER UNA MELODIA
Y LA GUITARRA RASGUEA CON LAS NOTAS


   Am-----C-E-Am------C-E-Am.. AHORA EL CHARANGO HACE UN
SOLO DE NOTAS CON VARIADOS RETOBLES Y LA GUITARRA
LO SIGUE CON UNA PERCUSIÓN GOLPEADA EN LAS CUERDAS AL
 LADO DEL PUENTE (LE DA UN SONIDO MÁS GRAVE)


AL FINAL DE LA CANCION LA GUITARRA HACE
LA PARTE "D)" QUE EXPLIQUE Y LUEGO LA PARTE
 "E)" JUNTO CON EL
CHARANGO Y TERMINA :  Am-E-Am-E-AmAmAm...


QUE LA DISFRUTEN!!!
Suggest correction
Give kudos to tab author, rate the tab!
1 2 3 4 5
comments
print report bad tab
guest
You may want to rate the tab now too:
select rating
Wanna post a correction for this tab? Suggest correction