Oops, an error
Loading. Please wait.

Salmo De La Rosa Verdadera Tab

46 views 1 this week
no commentswrite comment
1 2 3 4 5
3 more votes to show rating
add to favorites
launch autoscroll
font size
0
reset
how to read this tab
guitar tuner
×
Best way to learn
"Salmo De La Rosa Verdadera"
Autoscroll
slow
fast
+/-
esc
set tempo
stop
E |-----------------------------------
B |-----------------------------------
G |----12-10------------------13-13-12
D |-10-------13-12-10-9----12---------
A |---------------------10------------
E |-----------------------------------

E |-----------------------------------
B |-----------------------------------
G |----12-10--------------------------
D |-10-------13-12-10-9----12-13-12-10
A |---------------------10------------
E |-----------------------------------

E |--------------------------------
B |-11-11-9-------------11-14-14-13
G |---------12-10-8-12-------------
D |--------------------------------
A |--------------------------------
E |--------------------------------

E |---------------------------------
B |---------------------------------
G |-10-12-10-12-10-12-12------------
D |----------------------12-13-12-10
A |---------------------------------
E |---------------------------------
Suggest correction
Give kudos to tab author, rate the tab!
1 2 3 4 5
comments
print report bad tab
guest
You may want to rate the tab now too:
select rating
Wanna post a correction for this tab? Suggest correction