Oops, an error
Loading. Please wait.

Sambalando Chords

version 2
version 2

Whole song

203 views 1 this week
no commentswrite comment
1 2 3 4 5
3 more votes to show rating
add to favorites
launch autoscroll
font size
0
reset
transpose
0
reset
simplify chords
display chords
guitar tuner
Autoscroll
slow
fast
+/-
esc
set tempo
stop
Help us to improve Ultimate-Guitar.com Take our survey!
×
------------------2-|-------------------2-|-------------------2-|
----------------0---|-----------------0---|-----------------0---|
--------------2-----|---------------2-----|---------------2-----|
--------------------|---------------------|---------------------|
--------0-1-2-------|---------0-1-2-------|---------0-1-2-------|
--0-2-3-------------|--0-2-3--------------|--0-2-3--------------|

-------------------2-|----------------------|-0-0-0-0-0-0-0-|
-----------------0---|----------------------|-4-4-4-4-4-4-4-|
---------------2-----|----------------------|-4-4-4-4-4-4-4-|
---------------------|----------------------|---------------|
---------0-1-2-------|--------0-1-2-0-------|---------------|
--0-2-3--------------|--0-2-3---------3-2-0-|---------------|

intro: Em

     Em          Em
Sobre el manto de la noche
       B7       Em
esta la luna chispeando
    Em            G 
Sobre el manto de la noche
      B7       Em
esta la luna chispeando
  Em          C 
Así brilla fulgurando
       D7       G 
para establecer un fuero
    G            A 
Libertad para los negros
         B7         Em
cadenas para el negrero

C     G    A   G 
Samba landó, samba landó
C     G     B7   Em
Qué tienes tú que no tenga yo


C     G    A   G 
Samba landó, samba landó
C     G     B7   Em
Qué tienes tú que no tenga yo

------------------2-|------------------2-|----------------------|
----------------0---|----------------0---|----------------------|
--------------2-----|---------------2----|----------------------|
--------------------|--------------------|----------------------|
--------0-1-2-------|---------0-1-2------|--------0-1-2-0-------|
--0-2-3-------------|--0-2-3-------------|--0-2-3---------3-2-0-|

-0-0-0-0-0-0-0-|
-4-4-4-4-4-4-4-|
-4-4-4-4-4-4-4-|
---------------|
---------------|
---------------|

   Em           Em
Mi padre siendo tan pobre
    B7          Em
dejo una herencia fastuosa
    Em          G 
Mi padre siendo tan pobre
    B7          Em
dejo una herencia fastuosa
    Em         C 
para dejar de ser cosas
    D7           G 
dijo con ánimo entero
     G              A 
ponga atención, mi compadre
     B7           Em
que vienen nuevos negreros

 C   G     A    G 
Samba landó, samba landó
 C       G     B7       Em
Qué tienes tú que no tenga yo

 C   G     A    G 
Samba landó, samba landó
 C       G     B7       Em
Qué tienes tú que no tenga yo


------------------2-|-------------------2-|-------------------2-|
----------------0---|-----------------0---|-----------------0---|
--------------2-----|---------------2-----|---------------2-----|
--------------------|---------------------|---------------------|
--------0-1-2-------|---------0-1-2-------|---------0-1-2-------|
--0-2-3-------------|--0-2-3--------------|--0-2-3--------------|

-------------------2-|----------------------|-0-0-0-0-0-0-0-|
-----------------0---|----------------------|-4-4-4-4-4-4-4-|
---------------2-----|----------------------|-4-4-4-4-4-4-4-|
---------------------|----------------------|---------------|
---------0-1-2-------|--------0-1-2-0-------|---------------|
--0-2-3--------------|--0-2-3---------3-2-0-|---------------|

  Em          Em
La gente dice qué pena
      B7         Em
que tenga la piel oscura
   Em          G 
La gente dice qué pena
     B7         Em
que tenga la piel oscura
   Em         C 
como si fuera basura
    D7          G 
que se arroja al pavimento,
      G          A 
no saben del descontento
    B7        Em
entre mi raza madura.

 C   G     A    G 
Samba landó, samba landó
 C       G     B7       Em
Qué tienes tú que no tenga yo

     Em      Em
Hoy día alzamos la voz
     B7       Em
como una sola memoria
     Em      G 
Hoy día alzamos la voz
     B7       Em
como una sola memoria
     Em          C 
Desde Ayacucho hasta Angola,
   D7         G 
de Brasil a Mozambique
     G          A 
ya no hay nadie que replique,
     B7          Em
somos una misma historia.


 C   G     A    G 
Samba landó, samba landó
 C       G     B7       Em
Qué tienes tú que no tenga yo
Suggest correction
Give kudos to tab author, rate the tab!
1 2 3 4 5
comments
print report bad tab
guest
You may want to rate the tab now too:
select rating
Wanna post a correction for this tab? Suggest correction