Oops, an error
Loading. Please wait.

San Juanito Tab

90 views 3 this week
no commentswrite comment
1 2 3 4 5
3 more votes to show rating
add to favorites
launch autoscroll
font size
0
reset
how to read this tab
guitar tuner
Autoscroll
slow
fast
+/-
esc
set tempo
stop
INTRO:
    Dm
E||----------0-1-3-|--0----------|----------0-1-3-|--0----------|
B||--3-----3-------|--------3----|--3-----3-------|--------3----|
G||-----2----------|-----2-------|-----2----------|-----2-------|
D||--0-------------|--0----------|--0-------------|--0----------|
A||----------------|-------------|----------------|-------------|
E||----------------|-------------|----------------|-------------|

Parte A:
 Bb    D/A     Gm            Eb     Eb/Bb   Dm
----1-----2--|-----3--3----|--------------|-----1--1----||
----3-----3--|-----3--3----|-----4-----4--|-----3--3----||
----3-----2--|-----3--3----|-----3-----3--|-----2--2----||
-------------|-------------|-----5-----5--|--0----------||
-1-----0-----|-------------|--6-----------|-------------||
-------------|--3----------|--------6-----|-------------|| x2

Parte B:
 Dm     Dm/C    Bb            Eb    Eb/Bb    Dm
-----1-----1--|-----1--1----|--------------|-----1--1----||
-----3-----3--|-----3--3----|-----4-----4--|-----3--3----||
-----2-----2--|-----3--3----|-----3-----3--|-----2--2----||
--0-----------|-------------|-----5-----5--|--0----------||
--------3-----|--1----------|--6-----------|-------------||
--------------|-------------|--------6-----|-------------|| x2

Parte C:
 D7/F#           Gm                      D/F#      Gm
--2-2--2-2--2--|--3-3--3-3--3--|--3-3--3-2-2-2-2-|--3-3--3-3--3--|
--1-1--1-1--1--|--3-3--3-3--3--|--3-3--3-3-3-3-3-|--3-3--3-3--3--|
--2-2--2-2--2--|--3-3--3-3--3--|--3-3--3-2-2-2-2-|--3-3--3-3--3--|
--0-0--0-0--0--|--5-5--5-5--5--|--5-5--5-0-0-0-0-|--5-5--5-5--5--|
---------------|--5-5--5-5--5--|--5-5--5-0-0-0-0-|--5-5--5-5--5--|
--2-2--2-2--2--|--3-3--3-3--3--|--3-3--3-2-2-2-2-|--3-3--3-3--3--|


         F          Bb                     F          Bb            Dm
--3-3--3-1-1-1-1-|--6-6--6-6--6--|--6-6--6-1-1-1-1-|--1-----------|-----1-----1--...(Parte B)|
--3-3--3-1-1-1-1-|--6-6--6-6--6--|--6-6--6-1-1-1-1-|--3-----------|-----3-----3--------------|
--3-3--3-2-2-2-2-|--7-7--7-7--7--|--7-7--7-2-2-2-2-|--3-----------|-----2-----2--------------|
--5-5--5-3-3-3-3-|--8-8--8-8--8--|--8-8--8-3-3-3-3-|--3-----------|--0-----------------------|
--5-5--5-3-3-3-3-|--8-8--8-8--8--|--8-8--8-3-3-3-3-|--1--1--3--4--|--------3-----------------|
--3-3--3-1-1-1-1-|--6-6--6-6--6--|--6-6--6-1-1-1-1-|--1-----------|--------------------------|
 


Acordes:

  Eb/Bb Dm/C   Eb   D7/F# D/F#
E|--3-----1----3------2-----2-------|
B|--4-----3----4------1-----3-------|
G|--5-----2----3------2-----2-------|
D|-------------5------0-----0-------|
A|--6-----3----6--------------------|
E|--------------------2-----2-------|
Suggest correction
Give kudos to tab author, rate the tab!
1 2 3 4 5
comments
print report bad tab
guest
You may want to rate the tab now too:
select rating
Wanna post a correction for this tab? Suggest correction