Oops, an error
Loading. Please wait.

Takakoma Tab

140 views 1 this week
no commentswrite comment
1 2 3 4 5
3 more votes to show rating
add to favorites
launch autoscroll
font size
0
reset
how to read this tab
guitar tuner
×
Best way to learn
"Takakoma"
Autoscroll
slow
fast
+/-
esc
set tempo
stop
INTRO

E-|----------0-----1--0--3--1--6-5-3-1-0----|
A-|-0--5--4-----5------------------------5--|
E-|-----------------------------------------|
C-|-----------------------------------------|
G-|-----------------------------------------| x2


I PARTE

E-|-5--10-10--8-6--10-10-10---8-10-8-5--8-8-8-8-|
A-|---------------------------------------------|
E-|---------------------------------------------|
C-|-5--10-10--9-7--10-10-10---9-10-9-5--9-9-9-9-|
G-|---------------------------------------------|


E-|-5-8-5--3-1-0-1-3-3--5-5-3--------------|
A-|--------2-2-2-2-2-4--4-4-4--------------|
E-|---------------------------5-3-1-3-5-1--|
C-|-5-9-5---------------------5-4-2-4-5-2--|
G-|----------------------------------------|


II PARTE

E-|-3-6-6--5-3-5-6-6--8-10-8-5--8-8-8-8-|
A-|-1-5-5--5-5-5-5-5--7--7-7------------|
E-|-------------------------------------|
C-|--------------------------5--9-9-9-9-|
G-|-------------------------------------|


E-|-5-8-5--3-1-0-1-3-3--5-5-3--------------|
A-|--------2-2-2-2-2-4--4-4-4--------------|
E-|---------------------------5-3-1-3-5-1--|
C-|-5-9-5---------------------5-4-2-4-5-2--|
G-|----------------------------------------|


ACORDES:

I)
A# - (C) F - G - A - Dm

II)

Gm - (C) F - G - A - Dm


luego vendrian nuevamente los punteos...

escuchen bien el tema y podran sacarlo altiro

ACORDES:

    A#  C   F   G   A   Dm
E-|-1---3---5---3---0---1--|
A-|-1---3---0---2---0---0--|
E-|-1---0---1---3---0---1--|
C-|-2---0---0---2---1---2--|
G-|-3---0---2---0---2---2--|


*************************************************************

Para todos los charanguistas de LaCuerda, encontrar tabs de
charango no es muy sencillo, asi que quise aportar con mi
granito de arena, cualquier comentario a mi correo
hellpatrol.92@

Espero que esta pagina pueda ir creciendo en cuanto a aportes
de Charango :)
Suggest correction
Give kudos to tab author, rate the tab!
1 2 3 4 5
comments
print report bad tab
guest
You may want to rate the tab now too:
select rating
Wanna post a correction for this tab? Suggest correction