Oops, an error
Loading. Please wait.

Tarantella Tab

646 views 6 this week
no commentswrite comment
1 2 3 4 5
3 more votes to show rating
add to favorites
launch autoscroll
font size
0
reset
how to read this tab
guitar tuner
×
Best way to learn
"Tarantella"
Autoscroll
slow
fast
+/-
esc
set tempo
stop
Intro: Am


/:  Am                                     E       Am
   E /-12-8-10-8-7-8-7-5-7-5-7-5-7-8-7-8-10-8-10-12
   B /---------------------------------------------
   G /---------------------------------------------
   D /---------------------------------------------
   A /---------------------------------------------
   E /---------------------------------------------

    Am                                   E     Am
   E /-12-8-10-8-7-8-7-5-7-5-7-5-7-8-7-5-0-2-4-5---
   B /---------------------------------------------
   G /---------------------------------------------
   D /---------------------------------------------
   A /---------------------------------------------
   E /---------------------------------------------    :/

 /:   G7    C   G    C    G C E   Am
   E /3-3-3-5-5-3-3-5-5-3-5-3----------------------
   B /-----------------------6-5-3-----------------
   G /---------------------------------------------
   D /---------------------------------------------
   A /---------------------------------------------
   E /---------------------------------------------


    Am                                   E     Am
   E /-12-8-10-8-7-8-7-5-7-5-7-5-7-8-7-5-0-2-4-5---
   B /---------------------------------------------
   G /---------------------------------------------
   D /---------------------------------------------
   A /---------------------------------------------
   E /---------------------------------------------   :/

      G          C       G              C   G        C
/: E /-------------------------------------13-12-10-------
   B /----10-12-13-12-13----10-12-13-12-13----------13-12-
   G /-12----------------12-------------------------------
   D /----------------------------------------------------
   A /----------------------------------------------------
   E /----------------------------------------------------

         E         Am
   E /---------------
   B /-10-9-10-12-10-
   G /---------------
   D /---------------
   A /---------------
   E /--------------- :/  X4
      Am                          E      Am
   E /-5-5-3-3-1-1-0-0-1-0----------------
   B /---------------------3-1-0-------0--
   G /---------------------------2-1-2---2
   D /------------------------------------
   A /------------------------------------
   E /------------------------------------ X2

         G7    C     G7      E           Am
   E /-5-3-5-3-1-3-1-0---0-0-1-0-----------
   B /-----------------1---------3-1-0-----
   G /----------------------------------2-2
   D /-------------------------------------
   A /-------------------------------------
   E /------------------------------------- X2

   E /---------1-0--------
   B /1-s-5--------3-1-0--
   G /-------------------2
   D /--------------------
   A /--------------------
   E /--------------------


      G          C       G              C   G        C
/: E /-------------------------------------13-12-10-------
   B /----10-12-13-12-13----10-12-13-12-13----------13-12-
   G /-12----------------12-------------------------------
   D /----------------------------------------------------
   A /----------------------------------------------------
   E /----------------------------------------------------

         E         Am
   E /---------------
   B /-10-9-10-12-10-
   G /---------------
   D /---------------
   A /---------------
   E /--------------- :/  X4
      Am                          E      Am
   E /-5-5-3-3-1-1-0-0-1-0----------------
   B /---------------------3-1-0-------0--
   G /---------------------------2-1-2---2
   D /------------------------------------
   A /------------------------------------
   E /------------------------------------ X2
Suggest correction
Give kudos to tab author, rate the tab!
1 2 3 4 5
comments
print report bad tab
guest
You may want to rate the tab now too:
select rating
Wanna post a correction for this tab? Suggest correction