Oops, an error
Loading. Please wait.

Volver A Los 17 Tab

40 views 1 this week
no commentswrite comment
1 2 3 4 5
3 more votes to show rating
add to favorites
launch autoscroll
font size
0
reset
how to read this tab
guitar tuner
×
Best way to learn
"Volver A Los 17"
Autoscroll
slow
fast
+/-
esc
set tempo
stop
Intro: Am (Rasgueo suave) 

(VERSO X 2)
             Am                          C           
E|-----------------------------|---8-8-8-8-8-8-8--8---|
B|--10-10-10-10-10-10-10--10---|----------------------|
G|-----------------------------|----------------------|
D|-----------------------------|----------------------|
A|-----------------------------|----------------------|
E|-----------------------------|----------------------|  


             Am                          C
E|-----------------------------|---8-8-8-8-8-8-8--8---|
B|--10-10-10-10-10-10-10--10---|----------------------|
G|-----------------------------|----------------------|
D|-----------------------------|----------------------|
A|-----------------------------|----------------------|
E|-----------------------------|----------------------|


             Dm                          G7
E|--10-10-10-10-10-10-10--10---|---8-7-7-7-7-7-7--7---|
B|-----------------------------|----------------------|
G|-----------------------------|----------------------|
D|-----------------------------|----------------------|
A|-----------------------------|----------------------|
E|-----------------------------|----------------------|


             Dm                          G7
E|--10-10-10-10-10-10-10--10---|---8-7-7-7-7-7-7--7---|
B|-----------------------------|----------------------|
G|-----------------------------|----------------------|
D|-----------------------------|----------------------|
A|-----------------------------|----------------------|
E|-----------------------------|----------------------|


        Dm             G          E7                 Am
E|--12-13-13-12-13-12/15---|---13-12-12-10-12-10-12-------|
B|-------------------------|-------------------------13---|
G|-------------------------|------------------------------|
D|-------------------------|------------------------------|
A|-------------------------|------------------------------|
E|-------------------------|------------------------------|


(CORO)
          G7        C
E|---------------------------| 
B|--3-3-3-6---6--------------|
G|--------------4-4-5--------| X 4 
D|---------------------------|
A|---------------------------|
E|---------------------------|


      G         E7      Am  
E|----3-3-3-3-3-3----------------|
B|--5-------------6-5-3----------|
G|----------------------5--------|
D|-------------------------------|
A|-------------------------------|
E|-------------------------------|


   Am
Lo que puede el sentimiento
     C
no lo ha podido el saber, 
      Am
ni el más claro proceder
       C
ni el más ancho pensamiento.
  Dm
Todo lo cambia el momento
     G7
cual mago condescendiente,
    Dm
nos aleja dulcemente 
    G7
de rencores y violencia.
   Dm                G
Sólo el amor con su ciencia
     E7               Am
nos vuelve tan inocentes.
          G7            C
Se va enredando, enredando
            G7          C
como en el muro la hiedra,
         G7          C
y va brotando, brotando
            G7             C
como el musguito en la piedra,
     G                  E7
como el musguito en la piedra, 
        Am
sí, sí, sí.

El amor es torbellino 
de pureza original,
hasta el feroz animal
susurra su dulce trino.
Detiene a los peregrinos,
libera a los prisioneros,
el amor con sus esmeros
al viejo lo vuelve niño,
y al malo sólo el cariño
lo vuelve puro y sincero.

Volver a los 17
después de vivir un siglo,
es como descifrar signos
sin ser sabio competente.
Volver a ser de repente
tan frágil como un segundo,
volver a sentir profundo
como un niño frente a Dios.
Eso es lo que siento yo
en este instante fecundo.
Suggest correction
Give kudos to tab author, rate the tab!
1 2 3 4 5
comments
print report bad tab
guest
You may want to rate the tab now too:
select rating
Wanna post a correction for this tab? Suggest correction