Oops, an error
Loading. Please wait.

Absolution Of The Soul Bass Tab

version 1
version 1

Whole song

Interactive

534 views 1 this week
3 commentsread comments
1 2 3 4 5
2 more votes to show rating
add to favorites
launch autoscroll
font size
0
reset
guitar tuner
Autoscroll
slow
fast
+/-
esc
set tempo
stop
Help us to improve Ultimate-Guitar.com Take our survey!
×
Author
Into Eternity - Absolution Of The Soul

Intro (only bass)
F|---------------------------------|
C|---------------------------------|
G|---------------------------------|
C|-----------------0-2-3-2-0-1-2-3-|

Riff 1 x6
F|---------------------------------|
C|---------------------------------|
G|---------------------------------|
C|-0-2-3-2-0-1-2-3-0-2-3-2-0-1-2-3-|

Pre-Verse
F|---------------------------------|
C|---------------------------------|
G|---------------------------------|
C|-0-2-3-2-0-1-2-3-0-2-3-2/12-12\--|

Verse x2                      rpt x3
F|---------------------------------|---------------------------------|
C|*-------------------------------*|---------------------------------|
G|*-------------------------------*|------------------/8---10--10----|
C|-0~----7~----8~----3~----2-3-2-1-|-0~----7~----8~------------------|

Fill
F|---------------------------------|
C|---------------------------------|
G|---------------------------------|
C|-0-------------------------------|

Riff 1 x4
Verse x2

Fill
F|---------------------------------|---------------------------------|
C|---------------------------------|---------------------------------|
G|---------------------------------|-10--10--10--10\-----------------|
C|-5---------------5---------------|-----------------5---5-5-5-5-5-5-|

Chorus x2                                                       rpt x2
F|---------------------------------|---------------------------------|
C|*--------------------------------|--------------------------------*|
G|*--------------------------------|--------------------------------*|
C|-0-0-0-0-0-0-0-0-0-0-0-0-8---8---|-0-0-0-0-0-0-0-0-7-8-7-5-7-5-3-5-|

F|---------------------------------|---------------------------------|
C|---------------------------------|---------------------------------|
G|---------------------------------|---------------------------------|
C|-5-6-5-3-5-3-1-3-5-6-5-3-5-3-1-3-|-5-6-5-3-5-3-1-3-5-6-5-3-5-3-1-3-|

Bridge
F|---------------------------------|---------------------------------|
C|---------------------------------|---------------------------------|
G|-5-555-555-553-3-1-111-111-111-1-|-0-000-000-001-1-----------------|
C|---------------------------------|-----------------5-555-555-555-5-|

F|---------------------------------|---------------------------------|
C|---------------------------------|---------------------------5-----|
G|-5-555-555-553-3-1-111-111-111-1-|-0-000-000-001-1-------5-7---7-5-|
C|---------------------------------|-----------------5-555-----------|

Solo                                                            rpt x5
F|---------------------------------|---------------------------------|
C|*--------------------------------|--------------------------------*|
G|*5-5-5-5-5-5-3-3-1-1-1-1-1-1-1-1-|-0-0-0-0-0-0-1-1----------------*|
C|---------------------------------|-----------------5-5-5-5-5-5-5-5-|

F|-----------------------5-5-5-----|---------------------------------|
C|-------------2-2-3-3-3-------3-3-|-2-2-2-2-2-2-3-3-5-5-5-5-5-5-5-5-|
G|-5-5-5-5-5-5---------------------|---------------------------------|
C|---------------------------------|---------------------------------|
                                                                rpt x2
F|---------------------------------|---------------------------------|
C|*--------------------------------|--------------------------------*|
G|*--------------------------------|--------------------------------*|
C|-0-0-0-0-0-0-0-0-0-0-0-0-8---8---|-0-0-0-0-0-0-0-0-7-8-7-5-7-5-3-5-|

Riff 1 x2
Verse x2
Fill
F|---------------------------------|
C|---------------------------------|
G|---------------------------------|
C|-0---------------0---------------|

Main Riff x8
End Note
F|---------------------------------|
C|---------------------------------|
G|---------------------------------|
C|-0-------------------------------|
Suggest correction
Give kudos to tab author, rate the tab!
1 2 3 4 5
comments
print report bad tab
3 comments total.
0 reply
batboy1192 10 Jun 15, 2009 10:09 AM

Hey Great Tab. I don't really see anything wrong with it. 5/5. Can you do any more?

+1 reply
BassFreak102 510 Jun 15, 2009 11:30 AM

i wrote down one of the fills wrong i gotta get around to fixin it

0 reply
batboy1192 10 Jul 19, 2009 04:45 PM

Awsome. This sounds better now. Could you do any more Into Eternity Bass?

guest
You may want to rate the tab now too:
select rating
Wanna post a correction for this tab? Suggest correction