Oops, an error
Loading. Please wait.

Black Sea Of Agony Tab

567 views 1 this week
no commentswrite comment
1 2 3 4 5
please rate
add to favorites
launch autoscroll
font size
0
reset
how to read this tab
guitar tuner
Autoscroll
slow
fast
+/-
esc
set tempo
stop
Help us to improve Ultimate-Guitar.com Take our survey!
×
                   Black Sea of Agony- Into Eternity
-------------------------------------------------------------------------------
Tabbed by: matrixsquirrel

I havn't seen this tab anywhere so I'll give it a shot with some important parts!

Tuning: C G Eb Bb F C
p.m - - - - - - - - - - - - - - - - - - - - - - - - - - - - - - - - -
e|--------------------------------------------------------------------| x2
B|--------------------------------------------------------------------|
G|--------------------------------------------------------------------|
D|----9-7-9---9-7-9---10-9-10-9---10-9-10-9---12-10-12-10---10-9-10-9-|
A|--7-------7-------7-----------7-----------7-------------7-----------|
E|--------------------------------------------------------------------|

e|--------------------------------------------------------| x2
B|--------------------------------------------------------|
G|--------------------------------------------------------|
D|--9-7-9-x-7-9-7-x-10-9-10-9-x-12-10-12-10-x-10-9-10-9-x-|
A|--------------------------------------------------------|
E|--------------------------------------------------------| 
     p.m.- - - - - -       - -             - - - - - -             - -
e|---------------------------------------------------------------------------|
B|---------------------------------------------------------------------------|
G|---------------------------------------------------------------------------|
D|--9-9-9-9-------------9-9-9-----9-9-7-7-7-7-------------10-10-10-10--------|
A|--7-7-7-7-------------7-7-7-----7-7-5-5-5-5--------------8--8--8--8--------|
E|----------0-0-0-0-0-0-------0-0-------------0-0-0-0-0-0-------------0-0----|
   ^play this a few times with some alternation between the chords

    solo breakdown thingy (4:53-5:15)                     
p.m.- - - - - - - - - - - - - - - - - - - - - - - - - - - vibrato then slide
e|--5-0-7-0-8-0-5-0-10-0-8-0-7-0-4-0-5-0-7-0-8-0-5-0-10-0-8-7~~\-| x2
B|---------------------------------------------------------------|
G|---------------------------------------------------------------|
D|---------------------------------------------------------------|
A|---------------------------------------------------------------|
E|---------------------------------------------------------------|

e|--------------------------------------------------------------------------|
B|--5/10--5/12--5/13--5/12\9/10--5/12---------------------------------------|
G|-------------------------------------9-7------7---------------------------|
D|-----------------------------------------10-9---10-9-7-10-9-7----7/9-10-9-|
A|--------------------------------------------------------------10----------|
E|--------------------------------------------------------------------------|
One day I shall finish this song! :)

p.m. palm mute
| /  slide up
| \  slide down
| h  hammer-on
| p  pull-off
| ~  vibrato
| +  harmonic
| x  Mute note
Suggest correction
Give kudos to tab author, rate the tab!
1 2 3 4 5
comments
print report bad tab
guest
You may want to rate the tab now too:
select rating
Wanna post a correction for this tab? Suggest correction