Oops, an error
Loading. Please wait.

Buried In Oblivion Tab

version 1
version 1

Whole song

Interactive

3,882 views 1 this week
3 commentsread comments
1 2 3 4 5
please rate
add to favorites
launch autoscroll
font size
0
reset
how to read this tab
guitar tuner
Autoscroll
slow
fast
+/-
esc
set tempo
stop
Help us to improve Ultimate-Guitar.com Take our survey!
×
Contributor
ok this is another song by into eternity. Buried In Oblivion. This is the new update, i 
all the solos now.


BURIED IN OBLIVION

* tune all guitars down 2 whole steps to C . *

** This is the beginning riff. It is played underneath the solo and during the singing
**

All Clean
E|---0------------0--------------0---------0---------------0-----------0---|
B|------6--------------6-----------------------6--------------6------------|
G|----------5--------------5-----------------------5--------------5--------|
D|0------------------------------------0-----------------------------------|
A|-------------------------------------------------------------------------|
E|-------------------------------------------------------------------------|

E|---0------------0--------------0---------0---------------0-----------0---|
B|------6--------------6-----------------------6--------------6------------|
G|----------5--------------5-----------------------5--------------5--------|
D|7------------------------------------7-----------------------------------|
A|-------------------------------------------------------------------------|
E|-------------------------------------------------------------------------|


E|--------------------0-------------------------------------0-------------|
B|----------------0-------0----------------------------0--------0---------|
G|----------10----------------10-----------------10----------------10-----|
D|-----10--------------------------10-------10-------------------------10-|
A|-8-------------------------------------8--------------------------------|
E|------------------------------------------------------------------------|

E|-------------------0---------------------------0------------------------|
B|---------------0-------0-----------------------0------------------------|
G|---------10----------------10-----------------10------------------------|
D|----10--------------------------10------------10------------------------|
A|7----------------------------------------------7------------------------|
E|------------------------------------------------------------------------|

Here is the intro guitar solo. I'm not gonna tab the slides and pull-offs ect. There
is a harmony guitar in parts of the solo. This is a very simple solo.

E|----5--7--5-----5--7--8--7--8--10----8--7--8----7--5--7----5--3--5-------|
B|5------------5-----------------------------------------------------------|
G|-------------------------------------------------------------------------|
D|-------------------------------------------------------------------------|
A|-------------------------------------------------------------------------|
E|-------------------------------------------------------------------------|


E|---5--7--5--------5--7--8--7--8--10--8--7--8--7--------------------------|
B|5---------------5-------------------------------8------------------------|
G|--------------------------------------------------9----------------------|
D|-------------------------------------------------------------------------|
A|-------------------------------------------------------------------------|
E|-------------------------------------------------------------------------|

E|----5--7--5-----5--7--8--7--8--10----8--7--8----7--5--7----5--3--5-------|
B|5------------5-----------------------------------------------------------|
G|-------------------------------------------------------------------------|
D|-------------------------------------------------------------------------|
A|-------------------------------------------------------------------------|
E|-------------------------------------------------------------------------|

E|12--12--12--12--12--12--12--12--12--12--12--12--12--12--12--12-----------|
B|-------------------------------------------------------------------------|
G|-------------------------------------------------------------------------|
D|-------------------------------------------------------------------------|
A|-------------------------------------------------------------------------|
E|-------------------------------------------------------------------------|


E|2--13--15--13--12--13--12-----12----------------------------------------|
B|---------------------------13------13-----------------------------------|
G|-------------------------------------12--10--9--10--9------9------------|
D|-------------------------------------------------------10-----10--9--7--|
A|------------------------------------------------------------------------|
E|------------------------------------------------------------------------|


E|------------------------------------10--12--13--12----13--12--10--10--12-|
B|-------------------------10--12--13--------------------------------------|
G|-------------7--9--10--9-------------------------------------------------|
D|7--9--10--9--------------------------------------------------------------|
A|-------------------------------------------------------------------------|
E|-------------------------------------------------------------------------|


After the solo you play the intro part again, which is the verse until tim, the
plays another solo. Here it is. This is the only part of the song that has distortion, this one
Make sure on the first bend you come back down sort of slow. and im not too sure about
ascending part at the end. the first bend at the end is played slow then the other two
follow it are played slighter faster.
E|-18b20---15-12--------------------------------------------------------|
B|---------------------------12-13-12-----------------------------------|
G|----------------16-12-9-12----------7----------------------7-9-10-----|
D|----------------------------------------------------7-9-10------------|
A|----------------------------------------------5-7-8-------------------|
E|----------------------------------------5-7-8-------------------------|

E|---------------------------|
B|---------------------------|
D|-16b17--16b17--16b17--14-12|


after that solo you play the second verse, i cant tell what it is, it sounds much different
from the first one.
after the second verse is the chorus, this is what you play..


E|--0-------------0--------0-----------0--------0------0--------|
B|----10------------10-------------------5--------5-------------|
G|-------9-------------9--------------------4--------4----------|
D|7---------------------------------2---------------------------|
A|--------------------------------------------------------------|
E|--------------------------------------------------------------|


E|----0-------------0-------0----------0-------0------0---------|
B|------6-------------6------------------6-------6--------------|
G|--------5-------------5------------------5-------5------------|
D|3--------------------------------3----------------------------|
A|--------------------------------------------------------------|
E|--------------------------------------------------------------|\


Next is the last solo which i finally found out. its fairly easy but im not to sure on
some parts. let the first 4 played on the g ring alittle.

Part One.
Riff one                                         1st ending
E|--------------------------------------------| |-------------|
B|-------------5-6-5---5-------8-6-5---5------| |-------------|
G|-5-4---4-5-7-------7---7-5-4-------7---7-5-4| |----4------4-|
D|--------------------------------------------| |---2------2--|
A|--------------------------------------------| |--2------0---|
E|--------------------------------------------| |-0------0----|

now for the first part of this solo you play the first riff on the g. im not sure if the
ending is right. after you play that, you play riff one again and then play this as the
instead, but im not quite sure if this is right.


E|------12----10-8-------|
B|---10----10------12----|
G|-9------------------9--|

Part Two, Play this all of part two twice.
                                                         Let this 12 ring \/
E|-----------------------10-------------------------------------10-----------|
B|---10---12---13---12--------13---12---9---10---12---13---12--------13---12-|
G|-9----9----9----9----9----9----9----9---9----9----9----9----9----9----9----|


Part 3..Part three is interesting because two parts of the solo are being played at
part one is being  played at the same time as part three, so you choose what you wish to
i think part three sounds better. also let the notes played on the b string ring for
bit(all the notes before the 12) and then play the notes on the g string. and make sure
play that last 9 after on the b string right before the 12 played on the e, thats not a mistake.

E|---------------------------------|
B|-10---12---13---12---9-10---12---|
G|----9----9----9----9------9----9-|

E|-12-10-8----10-8-------8------------------------|<-------|Sorry this wouldnt fit
B|---------12------12-10---12-10-9-10-12-13-12-10----------|   It looks like it does
G|---------------------------------------------------------|   but it doesnt.

Then to finish the song off, you play the 1st verse and then the chorus.

if you figure out what that second verse is email it to me at Thisgodlessendvr@aol.com
comments
We did not receive enough feedback on this tab! Please rate:
print report bad tab
1 2 3 4 5
3 comments total.
0 reply
Schmietty 79 wrote on November 12 2006, 09:20 pm

Solo's wrong.
Well, pretty much everything sounds wrong.

0 reply
soadrocker856 51 wrote on November 17 2007, 10:46 pm

I'm pretty sure this is what Tim Roth tabbed out on another site, so I don't see how it can be wrong unless you are
doing it wrong.

0 reply
Nevermore1230 348 wrote on November 25 2007, 07:18 pm

yeah.
most of it i just copied off their website.
but he doesn't have the solo's so i had to figure them out.
i'm
sure they're probably wrong.
but idk.
they might not be.

I want to post or [tab]
guest
You may want to rate the tab now too:
select rating
Please do not post tabs as comments. Select "correction" instead!