Oops, an error
Loading. Please wait.

Nothing Tab

version 2
version 2

Whole song

Interactive

1,215 views 1 this week
1 commentread comment
1 2 3 4 5
x 3
add to favorites
launch autoscroll
font size
0
reset
how to read this tab
guitar tuner
Autoscroll
slow
fast
+/-
esc
set tempo
stop
Help us to improve Ultimate-Guitar.com Take our survey!
×
Ok, there is a missing part here, the solo I couldn't tab, maybe later, and the part after the first chorus.

Intro:

E|-----------------------------------------------------------|
B|-----------------------------------------------------------|
G|8------6---------------8-----6-----------------------------|
D|-6----4-4---9------7----6---4-4---9------7-----------------|
A|--4--2---2---7----5-5----4-2---2---7----5-5----------------|
E|--------------5--3---3---------------5-3---3---------------|

E|---------------------------------------------------------------------------|
B|---------------------------------------------------------------------------|
G|--------------12--------8-----6-----------------12-------8-----6-----------|
D|------------10-----------6---4-4--------------10----------6---4-4-9-----7--|
A|----s8-----8---------s8---4-2---------s8-----8--------s8---4-2-----7---5-5-|
E|0000---0000------0000-------------0000---0000-----0000--------------5-3----|

E|---------------------------------------------------------------------------|
B|---------------------------------------------------------------------------|
G|--------------12--------8-----6-----------------12-------8-----6-----------|
D|------------10-----------6---4-4--------------10----------6---4-4-9-----7--|
A|----s8-----8---------s8---4-2---------s8-----8--------s8---4-2-----7---5-5-|
E|0000---0000------0000-------------0000---0000-----0000--------------5-3----|

VERSE
  P.M    P.M     P.M     P.M   P.M P.M    P.M     P.M    P.M    P.M   
E|-------------------------------------------------------------------|
B|-------------------------------------------------------------------|
G|-------------------------------------------------------------------|
D|----5p3----6p3-----5p3----6p3--------5p3----6p3-----5p3----6p3-----|
A|3333---3333----3333---3333---33333333---3333----3333---3333---3333-|
E|-------------------------------------------------------------------|

  P.M  P.M  P.M  P.M  P.M     P.M  P.M   P.M  P.M   P.M       
E|----------------------------------------------------------|
B|----------------------------------------------------------|
G|----------------------------------------------------------|
D|----3----5----6----8----10~-----3----5----6----11----10~--|
A|0000-0000-0000-0000-0000----0000-0000-0000-0000--0000-----|
E|----------------------------------------------------------|

  P.M    P.M     P.M     P.M   P.M P.M    P.M     P.M    P.M    P.M   
E|-------------------------------------------------------------------|
B|-------------------------------------------------------------------|
G|-------------------------------------------------------------------|
D|----5p3----6p3-----5p3----6p3--------5p3----6p3-----5p3----6p3-----|
A|3333---3333----3333---3333---33333333---3333----3333---3333---3333-|
E|-------------------------------------------------------------------|

  P.M  P.M  P.M  P.M  P.M     P.M  P.M   P.M  P.M   P.M       
E|----------------------------------------------------------|
B|----------------------------------------------------------|
G|----------------------------------------------------------|
D|----3----5----6----8----10~-----3----5----6----11----10~--|
A|0000-0000-0000-0000-0000----0000-0000-0000-0000--0000-----|
E|----------------------------------------------------------|

Chorus:

1st guitar does:

E|--------------------------------------------------------------|
B|--------------------------------------------------------------|
G|--------------------3------------------------------------6--5-|
D|-3------------------3-----6---------3--------------6-----6--5-|
A|-3-----4------6-----1-----6---------3------4-------6-----4--3-|
E|-1-----4------6-----------4---------1------4-------4----------|

2nd guitar does:

E---8---9-8-------8--8-8---|
B----9-----11-8----11-9-8--|
G-10--10--------10-------8-|
D--------------------------|
A--------------------------|
E--------------------------|

VERSE
  P.M    P.M     P.M     P.M   P.M P.M    P.M     P.M    P.M    P.M   
E|-------------------------------------------------------------------|
B|-------------------------------------------------------------------|
G|-------------------------------------------------------------------|
D|----5p3----6p3-----5p3----6p3--------5p3----6p3-----5p3----6p3-----|
A|3333---3333----3333---3333---33333333---3333----3333---3333---3333-|
E|-------------------------------------------------------------------|

  P.M  P.M  P.M  P.M  P.M     P.M  P.M   P.M  P.M   P.M       
E|----------------------------------------------------------|
B|----------------------------------------------------------|
G|----------------------------------------------------------|
D|----3----5----6----8----10~-----3----5----6----11----10~--|
A|0000-0000-0000-0000-0000----0000-0000-0000-0000--0000-----|
E|----------------------------------------------------------|

  P.M    P.M     P.M     P.M   P.M P.M    P.M     P.M    P.M    P.M   
E|-------------------------------------------------------------------|
B|-------------------------------------------------------------------|
G|-------------------------------------------------------------------|
D|----5p3----6p3-----5p3----6p3--------5p3----6p3-----5p3----6p3-----|
A|3333---3333----3333---3333---33333333---3333----3333---3333---3333-|
E|-------------------------------------------------------------------|

  P.M  P.M  P.M  P.M  P.M     P.M  P.M   P.M  P.M   P.M       
E|----------------------------------------------------------|
B|----------------------------------------------------------|
G|----------------------------------------------------------|
D|----3----5----6----8----10~-----3----5----6----11----10~--|
A|0000-0000-0000-0000-0000----0000-0000-0000-0000--0000-----|
E|----------------------------------------------------------|

Chorus:

1st guitar does:

E|--------------------------------------------------------------|
B|--------------------------------------------------------------|
G|--------------------3------------------------------------6--5-|
D|-3------------------3-----6---------3--------------6-----6--5-|
A|-3-----4------6-----1-----6---------3------4-------6-----4--3-|
E|-1-----4------6-----------4---------1------4-------4----------|

2nd guitar does:

E---8---9-8-------8--8-8---|
B----9-----11-8----11-9-8--|
G-10--10--------10-------8-|
D--------------------------|
A--------------------------|
E--------------------------|

Solo (don't know, sorry!)

Chorus:

1st guitar does:

E|--------------------------------------------------------------|
B|--------------------------------------------------------------|
G|--------------------3------------------------------------6--5-|
D|-3------------------3-----6---------3--------------6-----6--5-|
A|-3-----4------6-----1-----6---------3------4-------6-----4--3-|
E|-1-----4------6-----------4---------1------4-------4----------|

2nd guitar does:

E---8---9-8-------8--8-8---|
B----9-----11-8----11-9-8--|
G-10--10--------10-------8-|
D--------------------------|
A--------------------------|
E--------------------------|

OUTRO:

Chorus:

1st guitar does:

E|--------------------------------------------------------------|
B|--------------------------------------------------------------|
G|--------------------3------------------------------------6--5-|
D|-3------------------3-----6---------3--------------6-----6--5-|
A|-3-----4------6-----1-----6---------3------4-------6-----4--3-|
E|-1-----4------6-----------4---------1------4-------4----------|

2nd guitar does:

E---8---9-8-------8--8-8---|
B----9-----11-8----11-9-8--|
G-10--10--------10-------8-|
D--------------------------|
A--------------------------|
E--------------------------|

E|-----------------------------------------------------------|
B|-----------------------------------------------------------|
G|8------6---------------8-----6-----------------------------|
D|-6----4-4---9------7----6---4-4---9------7-----------------|
A|--4--2---2---7----5-5----4-2---2---7----5-5----------------|
E|--------------5--3---3--------------5--3---3---------------|

E|---------------------------------------------------------------------------|
B|---------------------------------------------------------------------------|
G|--------------12--------8-----6-----------------12-------8-----6-----------|
D|------------10-----------6---4-4--------------10----------6---4-4-9-----7--|
A|----s8-----8---------s8---4-2---------s8-----8--------s8---4-2-----7---5-5-|
E|0000---0000------0000-------------0000---0000-----0000--------------5-3----|

E|---------------------------------------------------------------------------|
B|---------------------------------------------------------------------------|
G|--------------12--------8-----6-----------------12-------8-----6-----------|
D|------------10-----------6---4-4--------------10----------6---4-4-9-----7--|
A|----s8-----8---------s8---4-2---------s8-----8--------s8---4-2-----7---5-5-|
E|0000---0000------0000-------------0000---0000-----0000--------------5-3----|

E|---------------------------------------------------------------------------|
B|---------------------------------------------------------------------------|
G|--------------12--------8-----6-----------------12-------8-----6-----------|
D|------------10-----------6---4-4--------------10----------6---4-4-9-----7--|
A|----s8-----8---------s8---4-2---------s8-----8--------s8---4-2-----7---5-5-|
E|0000---0000------0000-------------0000---0000-----0000--------------5-3----|

E|---------------------------------------------------------------------------|
B|---------------------------------------------------------------------------|
G|--------------12--------8-----6-----------------12-------8-----6-----------|
D|------------10-----------6---4-4--------------10----------6---4-4-9-----7--|
A|----s8-----8---------s8---4-2---------s8-----8--------s8---4-2-----7---5-5-|
E|0000---0000------0000-------------0000---0000-----0000--------------5-3----|


ENJOY! eldad.
Suggest correction
Give kudos to tab author, rate the tab!
1 2 3 4 5
comments
print report bad tab
1 comment total.
0 reply
chronicshredder 31 May 06, 2008 04:28 PM

it is tabbed way too low but i guess it works if you play standard tuning

guest
You may want to rate the tab now too:
select rating
Wanna post a correction for this tab? Suggest correction