Oops, an error
Loading. Please wait.

Augusta Ga Acoustic tab

5,662 views 9 this week
2 commentsread comments
1 2 3 4 5
x 7
add to favorites
×
Save as Personal and add changes to this tab that will be seen only by you. Learn more ›
×
You can save this tab as Personal to edit and correct it or add notes. All changes will be seen only by you. Learn more »
launch autoscroll
font size
0
reset
how to read this tab
guitar tuner
edit
Autoscroll
slow
fast
+/-
esc
set tempo
stop
Difficulty
-------------------------------------------------------------------------------
                             Augusta GA - Into It Over It
-------------------------------------------------------------------------------
Tabbed by: Joe Miskimmins

Tuning:Db Ab Db F Ab Db (Half step down, then drop low estring a full step down 
and the G string half a step down)


Db|----------------------------------|
Ab|----------------------------------|
F |---7/0-0-----0--------------------|
Db|---------------0------0-----0-----|
Ab|---------0h2--------7-----7-------|
Db|-0----------------7-----5---------| 

(listen and you'll hear where it changes)

Db|--------------------------------------------------------------------|
Ab|---------------------------------------------------------------0----|
F |---7/0-0-----0---------------------0~------7~-------8----------5----|
Db|---------------0------0-----0------------------------------4---4----|
Ab|---------0h2--------7-----7------7------7--------9-------5-----5----|
Db|-0----------------7-----5------4------7-------9--------5-------5----|

            
            
Suggest correction
Creating personal tab
Creating personal tab
You can edit any tab online and save it as your Personal.

You can edit, replace or remove any tab part or add personal notes – all changes will be seen only by you.

Personal tabs can be accessed anytime from any device, even offline.
Learn more »
comments
print report bad tab
2 comments total.
0 reply
epicblob 117 Apr 10, 2015 01:19 PM

I listened to the song and the main riff sounds more like this:

Db|----------------------------------|
Ab|----------------------------------|
F |---7/0-0-------3------------------|
Db|-------------0--------0-----0-----|
Ab|---------0h2--------7-----7-------|
Db|-0----------------7-----5---------|


I listened to the song here: https://www.youtube.com/watch?v=391wER16-O0 so it might be that you were listening to a live version or something. Still, props for getting the tuning and most of it right.

0 reply
matz3k 10 Jun 14, 2016 10:45 AM

Same idea, just if you play the Ab open, it sound a little better, I think.
Besides of that, spot on! Perfect Tab, thank you so much!

Db|----------------------------------|
Ab|-------------- 0------------------|
F |---7/0-0--------------------------|
Db|-------------0--------0-----0-----|
Ab|---------0h2--------7-----7-------|
Db|-0----------------7-----5---------|

guest
Wanna post a correction for this tab? Suggest correction