Oops, an error
Loading. Please wait.

Augusta Ga Acoustic Tab

5,008 views 12 this week
1 commentread comment
1 2 3 4 5
accurate
x 7
add to favorites
launch autoscroll
font size
0
reset
how to read this tab
guitar tuner
Tab Pro tools
  • play this tab
  • loop segment
  • change instrument
  • show fretboard
  • metronome
×
Best way to learn
"Augusta Ga Acoustic"
Autoscroll
slow
fast
+/-
esc
set tempo
stop
Difficulty
novice
-------------------------------------------------------------------------------
                             Augusta GA - Into It Over It
-------------------------------------------------------------------------------
Tabbed by: Joe Miskimmins

Tuning:Db Ab Db F Ab Db (Half step down, then drop low estring a full step down 
and the G string half a step down)


Db|----------------------------------|
Ab|----------------------------------|
F |---7/0-0-----0--------------------|
Db|---------------0------0-----0-----|
Ab|---------0h2--------7-----7-------|
Db|-0----------------7-----5---------| 

(listen and you'll hear where it changes)

Db|--------------------------------------------------------------------|
Ab|---------------------------------------------------------------0----|
F |---7/0-0-----0---------------------0~------7~-------8----------5----|
Db|---------------0------0-----0------------------------------4---4----|
Ab|---------0h2--------7-----7------7------7--------9-------5-----5----|
Db|-0----------------7-----5------4------7-------9--------5-------5----|
comments
print report bad tab
1 comment total.
0 reply
epicblob wrote on April 10 2015, 05:19 pm

I listened to the song and the main riff sounds more like this:


Db|----------------------------------|
Ab|----------------------------------|
F |---7/0-0-------3------------------|
Db|-------------0--------0-----0-----|
Ab|---------0h2--------7-----7-------|
Db|-0----------------7-----5---------|


I listened to the song here: https://www.youtube.com/watch?v=391wER16-O0 so it might be that you were listening to a live version or something. Still, props for getting the tuning and most of it right.

I want to post or [tab]
guest
You may want to rate the tab now too:
select rating
Please do not post tabs as comments. Select "correction" instead!