Oops, an error
Loading. Please wait.

Brenham Tx Tab

2,103 views 12 this week
2 commentsread comments
1 2 3 4 5
accurate
x 3
add to favorites
launch autoscroll
font size
0
reset
how to read this tab
guitar tuner
Tab Pro tools
  • play this tab
  • loop segment
  • change instrument
  • show fretboard
  • metronome
×
Best way to learn
"Brenham Tx"
Autoscroll
slow
fast
+/-
esc
set tempo
stop
Contributor
Difficulty
Tuning
novice
D# G# C# F# A# D#
Brenham, TX by Into It. Over It. A.K.A Evan Weiss
This song is super fun to play and pretty easy to figure out.
The only problem is the tuning.
The song is played in D# G# C# F A# D# 
or half step down with the G string a full step down.

http://24.media.tumblr.com/tumblr_mc7a4iapSm1qarlhao1_500.jpg
^That's a link to the tuning sheet of Evan's set as taken from his show

D#|--------------------------------------------|
A#|--------------------------------------------|
F |-10---10---10------10-----------------------|
C#|--9----9----9-------9-----------------------|
G#|--7----0----9-or-x--7-----------------------|
D#|--7----0----9-------0-----------------------|

D#|-------|
A#|-------|
F |--10---|
C#|---9---|
G#|---9---|
D#|---9---|

^This chord is quicker than the rest

D#|-------|
A#|-------|
F |--10---|
C#|---9---|
G#|---7---|
D#|---0---|

^End on this chord

There's the chords, the timing's not too difficult just watch the tuning.

Here's the video I got this tab from.
http://www.youtube.com/watch?v=vLRUGJ7NrdI
comments
We did not receive enough feedback on this tab! Please rate:
print report bad tab
1 2 3 4 5
2 comments total.
0 reply
calebyanase wrote on November 21 2014, 10:22 am

verse 1&2
D#|--------------------------------------------|
A#|--------------------------------------------|
F |-10---10---10------10-----------------------|
C#|--9----9----9-------9-----------------------|
G#|--7----0----9/x-----7-----------------------|
D#|--7----0----9-------0-----------------------|

D#|--------------------------------|
A#|--------------------------------|
F |--10---10---10----10----10----10|
C#|--9----9----9-----9-----9-----9-|
G#|--7----x----7-----0-----x-----7-|
D#|--7----9----7-----0-----9-----0-|

^These chords are quicker than the rest

x4
D#|--------------------------------|
A#|--------------------------------|
F |--10---10---10----10----10----10|
C#|--9----9----9-----9-----9-----9-|
G#|--7----x----7-----0-----x-----7-|
D#|--7----9----7-----0-----9-----0-|

end on
D#|-------|
A#|-------|
F |--10---|
C#|---9---|
G#|---7---|
D#|---0---|

0 reply
calebyanase wrote on November 21 2014, 10:23 am

verse 1&2
D#|--------------------------------------------|
A#|--------------------------------------------|
F |-10---10---10------10-----------------------|
C#|--9----9----9-------9-----------------------|
G#|--7----0----9/x-----7-----------------------|
D#|--7----0----9-------0-----------------------|

D#|--------------------------------|
A#|--------------------------------|
F |--10---10---10----10----10----10|
C#|--9----9----9-----9-----9-----9-|
G#|--7----x----7-----0-----x-----7-|
D#|--7----9----7-----0-----9-----0-|

^These chords are quicker than the rest

x4
D#|--------------------------------|
A#|--------------------------------|
F |--10---10---10----10----10----10|
C#|--9----9----9-----9-----9-----9-|
G#|--7----x----7-----0-----x-----7-|
D#|--7----9----7-----0-----9-----0-|

end on
D#|-------|
A#|-------|
F |--10---|
C#|---9---|
G#|---7---|
D#|---0---|

I want to post or [tab]
guest
You may want to rate the tab now too:
select rating
Please do not post tabs as comments. Select "correction" instead!