Oops, an error
Loading. Please wait.

Open Casket tab

version 1
version 1

Whole song

1,874 views 12 this week
9 commentsread comments
1 2 3 4 5
x 6
add to favorites
×
Save as Personal and add changes to this tab that will be seen only by you. Learn more ›
×
You can save this tab as Personal to edit and correct it or add notes. All changes will be seen only by you. Learn more »
launch autoscroll
font size
0
reset
how to read this tab
guitar tuner
edit
Autoscroll
slow
fast
+/-
esc
set tempo
stop
Open Casket by Into It. Over It.
Tuning: C# G# C# F G# C#
Capo 3

Tabbed by epicblob
 
Verse 1:        “My friends from where I’m from..."
E|-------------------------|--------------------------------------|
B|-------------0~----------|-------------0~-----------------------|
G|--0h1p0---------0--------|--0h1p0---------0-0-------------------|
D|-------0h2p0------h2/4p0-|-------0h2p0-----3--------------------| 
A|-------------------------|--------------------------------------|
E|--0------------2----4----|--5------------4-\2-------------------|
 |                         |                                      | X2
E|-------------------------|--------------------------------------|
B|-------------0~----------|-------------0~-----------------------|
G|--0h1p0---------0--------|--0h1p0---------0-0-------------------|
D|-------0h2p0------h2/4p0-|-------0h2p0-----3--------------------| 
A|-------------------------|-----------------2p0------------------|
E|--0------------2----4----|--5------------4----------------------|

Chorus part 1:  “Carrying on and on”
E|-------------0--0------|---------------------------------------|
B|----------0h2---2------|---------------------------------------|
G|--0h1---h3------3\1\0--|---------------------------------------|
D|-----0h2--------0------|---------------------------------------|
A|-----------------------|---------------------------------------|
E|-----------------------|---------------------------------------|

Chorus part 2:  “I can’t decide...”
E|----------------------------------------------------------0~---|
B|-------------0~-------------0~-------------0~--0h2p0-----------|
G|--0h1p0----------0h1p0----------0h1p0---------------0h1p0------|
D|-------0h2p0----------0h2p0----------0h2p0---------------------|
A|---------------------------------------------------------------|
E|--0--------------2--------------4--------------5---------------|

E|---------------------------------------------------------------|
B|-------------0~-------------0~-------------0~--x-0-------------|
G|--0h1p0----------0h1p0----------0h1p0----------x-5\3\1---------|
D|-------0h2p0----------0h2p0----------0h2p0-----x-0-------------|
A|-----------------------------------------------x-0-------------|
E|--0--------------2--------------4------------------------------|

Interlude:
E|--------------------------|------------------x----0~-----------|
B|-------------0~-----------|---------------0~-x----0~-----------|
G|--0h1p0---------0-------0-|----0h1p0---------x--5\3\1----------|
D|-------0h2p0------2/4p0---|----------0h2p0---x----0~-----------| X4
A|--------------------------|------------------------------------|
E|--0------------2----------|----5-------------------------------|

Verse 2:        “My friends from where I’m from..."
E|-------------------------|-------------------------------------|
B|-------------0~----------|-------------0~----------------------|
G|--0h1p0---------0--------|--0h1p0---------0-0------------------|
D|-------0h2p0------h2/4p0-|-------0h2p0-----3-------------------| 
A|-------------------------|-------------------------------------|
E|--0------------2----4----|--5------------4-\2------------------|
 |                         |                                      | X2
E|-------------------------|-------------------------------------|
B|-------------0~----------|-------------0~----------------------|
G|--0h1p0---------0--------|--0h1p0---------0-0------------------|
D|-------0h2p0------h2/4p0-|-------0h2p0-----3-------------------| 
A|-------------------------|-----------------2p0-----------------|
E|--0------------2----4----|--5------------4---------------------|


Chorus part 1:  “I’m carrying on and on”
E|-------------0--0------|---------------------------------------|
B|----------0h2---2------|---------------------------------------|
G|--0h1---h3------3\1\0--|---------------------------------------|
D|-----0h2--------0------|---------------------------------------|
A|-----------------------|---------------------------------------|
E|-----------------------|---------------------------------------|

Chorus part 2:  “I can’t decide...”
E|----------------------------------------------------------0~---|
B|-------------0~-------------0~-------------0~--0h2p0-----------|
G|--0h1p0----------0h1p0----------0h1p0---------------0h1p0------|
D|-------0h2p0----------0h2p0----------0h2p0---------------------|
A|---------------------------------------------------------------| X2
E|--0--------------2--------------4--------------5---------------|


Bridge:         “You showed up late per usual...”
E|-----------------------------------------------------------0~--|
B|-------------0~-------------0~-------------0~--0h2p0-----------|
G|--0h1p0----------0h1p0----------0h1p0---------------0h1p0------|
D|-------0h2p0----------0h2p0----------0h2p0---------------------|
A|---------------------------------------------------------------|
E|--0--------------2--------------4--------------5---------------|


E|---------------------------------------------------------------|
B|-------------0~-------------0~-------------0~--0h2p0------1~---|
G|--0h1p0----------0h1p0----------0h1p0---------------0h1p0------|
D|-------0h2p0----------0h2p0----------0h2p0---------------------|
A|---------------------------------------------------------------|
E|--0--------------2--------------4--------------5---------------|


E|-x-0-----|
B|-x-0~----|
G|-x-4\3\1-|
D|-x-0~----| 
A|---------|
E|---------|


Outro:          “My friends from where I’m from are all a wreck”
E|--------------------------|------------------x----0~-----------|
B|-------------0~-----------|---------------0~-x----0~-----------|
G|--0h1p0---------0-------0-|----0h1p0---------x--5\3\1----------|
D|-------0h2p0------2/4p0---|----------0h2p0---x----0~-----------| X4
A|--------------------------|------------------------------------|
E|--0------------2----------|----5-------------------------------|



Suggest correction
Creating personal tab
Creating personal tab
You can edit any tab online and save it as your Personal.

You can edit, replace or remove any tab part or add personal notes – all changes will be seen only by you.

Personal tabs can be accessed anytime from any device, even offline.
Learn more »
comments
print report bad tab
9 comments total. Showing first comments.
0 reply
helpweresunk 10 Apr 02, 2016 09:01 PM

At the end of chorus part 2, you have all the strings that get played shifted one string lower. Otherwise it's perfect as far as I can tell.

-1 reply
a.knick135 10 Apr 10, 2016 08:22 AM

this tab isnt quite right

0 reply
hypnotizenlp 10 May 17, 2016 11:55 AM

Im confused how to play the first bar of the tab. The low C# string has to play 4 while the middle C# string has to slide. I can't figure out the timing. Any advice?

guest
You may want to rate the tab now too:
select rating
Wanna post a correction for this tab? Suggest correction