Oops, an error
Loading. Please wait.

Open Casket tab

version 2
version 2

Whole song

557 views 6 this week
3 commentsread comments
1 2 3 4 5
x 3
add to favorites
×
Save as Personal and add changes to this tab that will be seen only by you. Learn more ›
×
You can save this tab as Personal to edit and correct it or add notes. All changes will be seen only by you. Learn more »
launch autoscroll
font size
0
reset
how to read this tab
guitar tuner
edit
Autoscroll
slow
fast
+/-
esc
set tempo
stop
Into It Over It
Open Casket
Standards
2016

Tuning: C#G#C#F#G#C#

Capo: 3

[Verse]

C#|-------------------------------------------------------|
G#|-------------0--------------------------0--------------|
F |-0h1p0-------------0---------0h1p0------------0-----0--|x4
C#|-------0h2p0-------------0--------0h2p0----------3-----|
G#|-----------------------------3-------------------2-p0--|
C#|-0--------------2-----5--------------------5-----------|


[Prechorus]

C#|----------------0-----0-----|
G#|--------0----------0--0-----|
F |------------3h5----5--3-\1--|
C#|----4h5------------5--4-\2--|
G#|-------------------x--------|
C#|-5-----------------5--4-\2--|


[Chorus]

C#|---------------------------------------------------------0--|
G#|-------------0--------------0-------------0------0----------|
F |-0h1p0----------0h1p0----------0h1p0---------0h5------------|
C#|-------0h2p0----------0h2p0---------0h2p0----------0h4h5----|
G#|----------------2-------------------------------------------|
C#|-0-----------------------------2-------------5--------------|

C#|---------------------------------------------x-----0-----|
G#|-------------0--------------0-------------0--x--0--0-----|
F |-0h1p0----------0h1p0----------0h1p0---------x-/5--3-\1--|
C#|-------0h2p0----------0h2p0---------0h2p0----x-/5--4-\2--|
G#|----------------2----------------------------x-----------|
C#|-0-----------------------------2-------------x-/5--4-\2--|


[Interlude]

C#|----------------------0--------------------------0-----|
G#|-------------0---------------0----------0-----0--0-----|
F |-0h1p0-------------0---------0h1p0------------5--3-\1--|x3
C#|-------0h2p0-------------0--------0h2p0----------4-\2--|
G#|-----------------------------3-------------------x-----|
C#|-0--------------2-----5--------------------5-----4-\2--|

C#|----------------------0--------------------x-----0-----|
G#|-------------0---------------0----------0--x--0--0-----|
F |-0h1p0-------------0---------0h1p0---------x-/5--3-\1--|x1
C#|-------0h2p0-------------0--------0h2p0----x-----4-\2--|
G#|-----------------------------3-------------x-----x-----|
C#|-0--------------2-----5--------------------x-----4-\2--|

[Verse x4]

[Chorus x3]

[Chorus continued]

C#|-------------------------------------------------------------------0-----|
G#|-------------0--------------0-------------0------0--------------0--0-----|
F |-0h1p0----------0h1p0----------0h1p0---------0h5---------4------4--3-\1--|
C#|-------0h2p0----------0h2p0---------0h2p0----------0h4h5--------5--4--2--|
G#|----------------2-----------------------------------------------x--x-----|
C#|-0-----------------------------2-------------5------------------5--4--2--|

[Interlude x4]


************************************

| x   Dead note
| g   Grace note
| (n) Ghost note
| h   Hammer-on
| p   Pull-off
| r   Release
| >   Accented note
| t   Tapping
| b   Bend
| br  Bend release
| pb  Pre-bend
| pbr Pre-bend release
| /   Slide up
| \   Slide down
| ~   Vibrato
| s   Slap
| P   Pop
| PM  Palm mute
| TR  Trill
| N   Tremolo

************************************

            
            
Suggest correction
Creating personal tab
Creating personal tab
You can edit any tab online and save it as your Personal.

You can edit, replace or remove any tab part or add personal notes – all changes will be seen only by you.

Personal tabs can be accessed anytime from any device, even offline.
Learn more »
Give kudos to tab author, rate the tab!
1 2 3 4 5
comments
print report bad tab
3 comments total.
0 reply
W3R3W00F 134 Jul 12, 2016 05:02 PM

Frickin faved.

0 reply
epicblob 117 Aug 11, 2016 07:18 PM

Yeah, this is way better than mine. My only gripe is that the 1h2p1 part should really be 0h1p0. Other than that, it's flawless.

guest
You may want to rate the tab now too:
select rating
Wanna post a correction for this tab? Suggest correction