Oops, an error
Loading. Please wait.

The Shaking Of Leaves tab

10,106 views 69 this week
3 commentsread comments
1 2 3 4 5
x 11
add to favorites
×
Save as Personal and add changes to this tab that will be seen only by you. Learn more ›
×
You can save this tab as Personal to edit and correct it or add notes. All changes will be seen only by you. Learn more »
launch autoscroll
font size
0
reset
how to read this tab
guitar tuner
edit
Autoscroll
slow
fast
+/-
esc
set tempo
stop
Artist: Into it. Over It
Song: The Shaking Of Leaves
E-mail: bradleyhollifield@yahoo.com
Tuning: Standard, Capo 6th fret

[Intro] x4
e|--------------------------------------------------------------------------|
B|--------0------3-------0---0----------------------------------------------|
G|---------0-----0-------0---2p0--------------------------------------------|
D|-----0h2---------------0---0----------------------------------------------|
A|---0-------3--------------------------------------------------------------|
E|-------------------3------------------------------------------------------|

(After the intro, the following is played throughout the rest of the song)
e|--------------------------------------------------------------------------|
B|--------0------3-------0---0------------0------3-------0---0--------------|
G|---------0-----0-------0---2p0-----------0-----0-------0---2p0------------|
D|-----0h2---------------0---0---------0h2---------------0---0--------------|
A|---0-------3-----------------------0-------3------------------------------|
E|-------------------3-------------------------------3----------------------|

e|--------------------------------------------------------------------------|
B|--------0------3-------0---0------------0------3-------0---0--------------|
G|---------0-----0-------0---2p0-----------0-----0-------0---2p0------------|
D|-----0h2---------------0---0---------0h2---------------0---0--------------|
A|---0-------3-------------------------------3------------------------------|
E|-------------------3---------------0---------------3----------------------|

(For those of you who have a bass guitar as well)

(The bass guitar comes in during the Chorus "Whoa, Whoa, Whoa")
G|--------------------------------------------------------------------------|
D|---1-------4-----------------------1-------4------------------------------|
A|-------------------4-------------------------------4----------------------|
E|--------------------------------------------------------------------------|

G|--------------------------------------------------------------------------|
D|---1-------4--------------------------------------------------------------|
A|-------------------4---------------1---------------4----------------------|
E|------------------------------------------2-------------------------------|

(At the end of the song when Evan sings "The New Haven Expose", the bass does
not play (obviously), however, the bass comes in at the end of the bridge
during "gunman was nineteen" with below)

G|--------------------------------------------------------------------------|
D|--------------------------------------------------------------------------|
A|-----------------------------------1---------------4----------------------|
E|------------------------------------------2-------------------------------|

(After this, the bass is played as it was before)

************************************

| p  Pull-off
| h  Hammer-on

************************************

            
            
Suggest correction
Creating personal tab
Creating personal tab
You can edit any tab online and save it as your Personal.

You can edit, replace or remove any tab part or add personal notes – all changes will be seen only by you.

Personal tabs can be accessed anytime from any device, even offline.
Learn more »
comments
print report bad tab
3 comments total.
0 reply
matz3k 10 Oct 05, 2013 02:34 PM

Awesome. I LOVE it. Evan is like one of the most awesome guitar players on this very planet. I LOVE it. But I'm not 100% sure bout the
e--------
B----0---
G----0---
D----0---
A--------
E--------
at the end of the riff. The
B|--------------------------0-----------------------------------------|
G|--------------------------2p0----------------------------------------
D|--------------------------0------------------------------------------
Sounds perfectly fine. But hey, awesome Tab, wouldn't have been able to do this by myself.

0 reply
benisjammin208 28 Oct 08, 2013 06:40 AM

Such a great song! Not sure 100% on the solo but i assume its this!

A|--0--2--5--7--10--5--|

+1 reply
AqueousDecay 77 Dec 04, 2014 11:47 AM

Great tab but there's a slight variation of the main guitar part during the bridge (starting around 'The New Haven expose must've heard...)

e|--------------------------------------------------------------------------|
B|--------0------3-----------0-------------0------3----------0--------------|
G|---------0-----0-------4---2p0------------0-----0------4---2p0------------|
D|-----0h2-------------------0---------0h2-------------------0--------------|
A|---0-------3-----------------------0-------3------------------------------|
E|--------------------------------------------------------------------------|

guest
You may want to rate the tab now too:
select rating
Wanna post a correction for this tab? Suggest correction