Oops, an error
Loading. Please wait.

No One Is Alone Tab

7,924 views 12 this week
no commentswrite comment
1 2 3 4 5
1 last vote to show rating
add to favorites
launch autoscroll
font size
0
reset
how to read this tab
guitar tuner
Autoscroll
slow
fast
+/-
esc
set tempo
stop
Help us to improve Ultimate-Guitar.com Take our survey!
×
Author
Difficulty
intermediate
-----0-0----2---------------------------------|
---2-----2-------------2----2-----2---------2-|
---2-----------1-------2-------2-----2--------|
----------------------------------------------|
---------------2----------------------------0-|
----------------------------------------------|

Mother cannot guide you, now you’re on your own

-----0-0----2---------------------------------|
---2-----2-------------2----2-----2---------2-|
---2-----------1-------2-------2-----2--------|
----------------------------------------------|
---------------2----------------------------0-|
----------------------------------------------|

Only me beside you, still you’re not alone

---2---0---0-----2-----------2---0---0----2--|
-----------------2------------------------2--|
---2-----2---2---1-----------2-----2---2--1--|
---------------------------------------------|
---2-------------2-----------2------------2--|
---------------------------------------------|
 No one is alone. Truly, no one is alone.


-----0-0----2---------------------------------|
---2-----2-------------2----2-----2---------2-|
---2-----------1-------2-------2-----2--------|
----------------------------------------------|
---------------2----------------------------0-|
----------------------------------------------|

Sometimes people leave you, halfway through the wood
-----0-0----2---------------------------------|
---2-----2-------------2----2-----2---------2-|
---2-----------1-------2-------2-----2--------|
----------------------------------------------|
---------------2----------------------------0-|
----------------------------------------------|
Others may deceive you, you decide what’s good

---2---0---0-----2-----------2---0-----------|
-----------------2------------------0--------|
---2-----2---2---1-----------2-----2---2-----|
---------------------------------------------|
---2-------------2---------------------------|
---------------------------------------------|
You decide alone, but no one is alone.


-----0-0----2---------------------------------|
---2-----2-------------2----2-----2---------2-|
---2-----------1-------2-------2-----2--------|
----------------------------------------------|
---------------2----------------------------0-|
----------------------------------------------|

Mother isn’t here now, who knows what she’d say

-----0-0----2---------------------------------|
---2-----2-------------2----2-----2---------2-|
---2-----------1-------2-------2-----2--------|
----------------------------------------------|
---------------2----------------------------0-|
----------------------------------------------|

Nothing’s quite so clear now, feel you’ve lost your way

---2---0---0-----2-----------2---0---0----2--|
-----------------2------------------------2--|
---2-----2---2---1-----------2-----2---2--1--|
---------------------------------------------|
---2-------------2-----------2------------2--|
---------------------------------------------|
 You are not alone. Believe me, no one is alone. Truly.


-----0-0----2---------------------------------|
---2-----2-------------2----2-----2---------2-|
---2-----------1-------2-------2-----2--------|
----------------------------------------------|
---------------2----------------------------0-|
----------------------------------------------|

You move just a finger, say the slightest word

-----0-0----2----------------2------0---------|
---2-----2-------------2---------2----2---2---|
---2-----------1-------2---------2------------|
----------------------------------------4-----|
---------------2-------------2----------------|
----------------------------------------------|

Something’s bound to linger, be heard

---2---0---0-----2-----------2---0---0-------|
-----------------2------------------------2--|
---2-----2---2---1-----------2-----2---2--2--|
---------------------------------------------|
---2-------------2-----------2---------------|
---------------------------------------------|
 No one acts alone, careful, no one is alone.


---------------------------------------------|
---------------------------------------------|
-----2-----2--4---4--5---4—---5---4----------|
--4-----4------------------------------------|
---------------------------------------------|
---------------------------------------------|
People make mistakes, fathers, mothers

---------------------------------------------|
----------------------------------0----------|
-----2-----2--4---4--5---4---2----2----2-----|
--4-----4------------------------------------|
-----------------------------0---------0-----|
---------------------------------------------|
People make mistakes, holding to their own

---------------------------------------------|
----------------2----------------------------|
--2---0--------------------------------------|
--2------0--2---4----------------------------|
--0------------------------------------------|
---------------------------------------------|

Thinking they’re alone

http://www.broadwaymusicalhome.com/shows/intothewoods.htm
Suggest correction
Give kudos to tab author, rate the tab!
1 2 3 4 5
comments
print report bad tab
guest
You may want to rate the tab now too:
select rating
Wanna post a correction for this tab? Suggest correction