Oops, an error
Loading. Please wait.

Es Tan Bello Bass Tab

73 views 9 this week
no commentswrite comment
1 2 3 4 5
3 more votes to show rating
add to favorites
launch autoscroll
font size
0
reset
guitar tuner
×
Best way to learn
"Es Tan Bello"
Autoscroll
slow
fast
+/-
esc
set tempo
stop
   Es Tan Bello


                                    Intocable
Bajo


     H.           S  S E
G||--------------------5--|
D||---------------5h-7----|
A||-----------------------|
E||-----------------------|


  W                   W
--7----------------|-------------------|
-------------------|--5----------------|
-------------------|-------------------|
-------------------|-------------------|


  W
-------------------|
--7----------------|
-------------------|
-------------------|


  E  S  S E   E  E   E  E   E
-----7s-9-7--------------------|
-------------10--9-------------|
--8-----------------10--8------|
---------------------------10--|


  Q    E.  E  E  E  S E
-------------------------|
-------------------------|
--3----3------------5----|
-----------3--3--3----3--|


  Q    E.  E  E  S E  E
-------------------------|
-------------------------|
-------7-----------------|
--5--------1--1--1-3--1--|


  Q    E.  E  E  E  S E
-------------------------|
-------------------------|
--3----3------------5----|
-----------3--3--3----3--|


  Q    E.  E  E  S E  E
-------------------------|
-------------------------|
-------7-----------------|
--5--------1--1--1-3--1--|


  Q    E.  E  E  E  S E
-------------------------|
-------------------------|
--3----3------------5----|
-----------3--3--3----3--|


  Q    E.  E  E  S E  E
-------------------------|
-------------------------|
-------7-----------------|
--5--------1--1--1-3--1--|


  Q    E.  E  E  E  S E
-------------------------|
-------------------------|
--3----3------------5----|
-----------3--3--3----3--|


  Q    E.  E  S E  E  E
-------------------------|
-------------------------|
-----------8--8-8--7--5--|
--5----5-----------------|


  Q    E.  E  E  E  S E
-------------------------|
-------------------------|
--3----3------------5----|
-----------3--3--3----3--|


  Q    E.  E  E  S E  E
-------------------------|
-------------------------|
-------7-----------------|
--5--------1--1--1-3--1--|


  Q    E.  E  E  E  S E
-------------------------|
-------------------------|
--3----3------------5----|
-----------3--3--3----3--|


  Q    E.  E  S E  E  E
-------------------------|
-------------------------|
-----------8--8-8--7--5--|
--5----5-----------------|


  Q    E.  E  E  E  S E
-------------------------|
-------------------------|
--3----3------------5----|
-----------3--3--3----3--|


  Q    E.  E  E  S E  E
-------------------------|
-------------------------|
-------7-----------------|
--5--------1--1--1-3--1--|


  Q    E.  E  E  E  S E
-------------------------|
-------------------------|
--3----3------------5----|
-----------3--3--3----3--|


  Q    E.  E  E  S E  E
-------------------------|
-------------------------|
-------7-----------------|
--5--------1--1--1-3--1--|


  Q    E.  E  E  E  S E
-------------------------|
-------------------------|
--3----3------------5----|
-----------3--3--3----3--|


  Q    E.  E  S E  S   S E
----------------------------|
----------------------------|
-----------8--8-8--8s-10-8--|
--5----5--------------------|


  Q    E.  E  E  E  S E
-------------------------|
-------------------------|
--3----3------------5----|
-----------3--3--3----3--|


  Q    E.  E  E  S E  E
-------------------------|
-------------------------|
-------7-----------------|
--5--------1--1--1-3--1--|


  Q    E.  E  E  E  S E
-------------------------|
-------------------------|
--3----3------------5----|
-----------3--3--3----3--|


  Q    E.  E  E  S E  E
-------------------------|
-------------------------|
-------7-----------------|
--5--------1--1--1-3--1--|


  Q    E.  E  E  E  S E
-------------------------|
-------------------------|
--3----3------------5----|
-----------3--3--3----3--|


  Q    E.  E  E  S E  E
-------------------------|
-------------------------|
-------7-----------------|
--5--------1--1--1-3--1--|


  Q    E.  E  E  E  S E
-------------------------|
-------------------------|
--3----3------------5----|
-----------3--3--3----3--|


  Q    E.  E  S E  S   S E
----------------------------|
----------------------------|
-----------8--8-8--8s-10-8--|
--5----5--------------------|


  Q    E.  E  E  E  S E
-------------------------|
-------------------------|
--3----3------------5----|
-----------3--3--3----3--|


  E  E  E  E  E  E  E  E
--------------------------|
--------------------------|
--------------------------|
--5--5--5--5--1--1--3--5--|


  Q    S S S E  S E  E  E
---------------------------|
---------------------------|
--3----3-------------3-----|
---------1-3-3--3-3-----3--|


  Q    S S S E  S E  E  E
---------------------------|
---------------------------|
-------7-5-7-8--8-8--7--5--|
--5------------------------|


  Q    E  S E  S E  E  E
--------------------------|
--------------------------|
--3----3------------3-----|
----------1-3--3-3-----3--|


  Q    E.  E  S E  S  S S  S
-----------------------------|
------------------------4s-6-|
-------------------4s-6------|
--5----5---1--3-5------------|


  Q    S S S E  S E  E  E
---------------------------|
---------------------------|
--3----3-------------3-----|
---------1-3-3--3-3-----3--|


  Q    S S S E  S E  E  E
---------------------------|
---------------------------|
-------7-5-7-8--8-8--7--5--|
--5------------------------|


  Q    E  S E  S E  E  E
--------------------------|
--------------------------|
--3----3------------3-----|
----------1-3--3-3-----3--|


  Q    E.  E  S E  S  S S  S
-----------------------------|
------------------------4s-6-|
-------------------4s-6------|
--5----5---1--3-5------------|


  H        H
--------------------|
--------------------|
--3-----------------|
--------------------|


  E  S  S E   E  E   E  E   E
-----7s-9-7--------------------|
-------------10--9-------------|
--8-----------------10--8------|
---------------------------10--|


  Q    E.  E  E  E  S E
-------------------------|
-------------------------|
--3----3------------5----|
-----------3--3--3----3--|


  Q    E.  E  S E  S   S E
----------------------------|
----------------------------|
-----------8--8-8--8s-10-8--|
--5----5--------------------|


  Q    E.  E  E  E  S E
-------------------------|
-------------------------|
--3----3------------5----|
-----------3--3--3----3--|


  Q    E.  E  E  S E  E
-------------------------|
-------------------------|
-------------------5--3--|
--5----5---1--1--1-------|


   W                    W
--------------------|--------------------|
--17----------------|---L----------------|
---3----------------|--------------------|
--------------------|--------------------|


   W
--------------------|
---L----------------|
--------------------|
--------------------|


  E  S  S E   E  E   E  E   E
-----7s-9-7--------------------|
-------------10--9-------------|
--8-----------------10--8------|
---------------------------10--|


  Q    E.  E  E  E  S E
-------------------------|
-------------------------|
--3----3------------5----|
-----------3--3--3----3--|


  Q    E.  E  E  S E  E
-------------------------|
-------------------------|
-------7-----------------|
--5--------1--1--1-3--1--|


  Q    E.  E  E  E  S E
-------------------------|
-------------------------|
--3----3------------5----|
-----------3--3--3----3--|


  Q    E.  E  S E  E  E
-------------------------|
-------------------------|
-----------8--8-8--7--5--|
--5----5-----------------|


  Q    E.  E  E  E  S E
-------------------------|
-------------------------|
--3----3------------5----|
-----------3--3--3----3--|


  Q    E.  E  E  S E  E
-------------------------|
-------------------------|
-------7-----------------|
--5--------1--1--1-3--1--|


  Q    S S S E  S E  E  E
---------------------------|
---------------------------|
--3----3-------------3-----|
---------1-3-3--3-3-----3--|


  E  E  E  E  E  E  E  E
--------------------------|
--------------------------|
--------------------------|
--5--5--5--5--1--1--3--5--|


  Q    S S S E  S E  E  E
---------------------------|
---------------------------|
--3----3-------------3-----|
---------1-3-3--3-3-----3--|


  Q    S S S E  S E  E  E
---------------------------|
---------------------------|
-------7-5-7-8--8-8--7--5--|
--5------------------------|


  Q    E  S E  S E  E  E
--------------------------|
--------------------------|
--3----3------------3-----|
----------1-3--3-3-----3--|


  Q    E.  E  S E  S  S S  S
-----------------------------|
------------------------4s-6-|
-------------------4s-6------|
--5----5---1--3-5------------|


  Q    S S S E  S E  E  E
---------------------------|
---------------------------|
--3----3-------------3-----|
---------1-3-3--3-3-----3--|


  Q    S S S E  S E  E  E
---------------------------|
---------------------------|
-------7-5-7-8--8-8--7--5--|
--5------------------------|


  Q    E  S E  S E  E  E
--------------------------|
--------------------------|
--3----3------------3-----|
----------1-3--3-3-----3--|


  Q    E.  E  E  S E  E
-------------------------|
-------------------------|
-------7-----------------|
--5--------1--1--1-3--1--|


  Q    S S S E  S E  E  E
---------------------------|
---------------------------|
--3----3-------------3-----|
---------1-3-3--3-3-----3--|


  Q    S S S E  S E  E  E
---------------------------|
---------------------------|
-------7-5-7-8--8-8--7--5--|
--5------------------------|


  Q    E  S E  S E  E  E
--------------------------|
--------------------------|
--3----3------------3-----|
----------1-3--3-3-----3--|


  Q    E.  E  S E  S  S S  S
-----------------------------|
------------------------4s-6-|
-------------------4s-6------|
--5----5---1--3-5------------|


  Q    S S S E  S E  E  E
---------------------------|
---------------------------|
--3----3-------------3-----|
---------1-3-3--3-3-----3--|


  Q    S S S E  S E  E  E
---------------------------|
---------------------------|
-------7-5-7-8--8-8--7--5--|
--5------------------------|


  Q    E  S E  S E  E  E
--------------------------|
--------------------------|
--3----3------------3-----|
----------1-3--3-3-----3--|


  Q    Q    E  E  S  S E
------------------5s-7----|
---------------5----------|
--------------------------|
--5----3----1-------------|


   W                    W
--17----------------|---L----------------|
--------------------|--------------------|
--15----------------|--------------------|
--------------------|--------------------|


   W                   W
---L----------------|-------------------|
--------------------|-------------------|
--------------------|-------------------|
--------------------|-------------------|


  W                   W
-------------------|-------------------|
-------------------|-------------------|
-------------------|-------------------|
-------------------|-------------------|


  W                   W
-------------------|-------------------||
-------------------|-------------------||
-------------------|-------------------||
-------------------|-------------------||


Duration Legend
---------------
W - whole
H - half
Q - quarter
E - 8th
S - 16th
T - 32nd
X - 64th
. - note dotted
|-n-|  - n-tuplets


Tablature Legend
----------------
L - tied note
x - dead note
g - grace note
(n) - ghost note
> - accentuded note
NH - natural harmonic
AH - artificial harmonic
TH - tapped harmonic
SH - semi harmonic
PH - pitch harmonic
h - hammer on
p - pull off
b - bend
br - bendRelease
pb - preBend
pbr - preBendRelease
brb - bendReleaseBend
n/ - tremolo bar dip
n - tremolo bar dive
-/n - tremolo bar Release up
/n - tremolo bar inverted dip
/n - tremolo bar return
-n - tremolo bar Release down
S - shift slide
s - legato slide
/ -  slide into from below or out of upwards
 -  slide into from above or out of downwards
~ - vibrato
W - wide vibrato
tr - trill
TP - tremolo picking
T - tapping
S - slap
P - pop
< - fade in
^ - brush up
v - brush down
Suggest correction
Give kudos to tab author, rate the tab!
1 2 3 4 5
comments
print report bad tab
guest
You may want to rate the tab now too:
select rating
Wanna post a correction for this tab? Suggest correction