Oops, an error
Loading. Please wait.

Es Tan Bello Tab

version 1
version 1

Whole song

58 views 1 this week
no commentswrite comment
1 2 3 4 5
3 more votes to show rating
add to favorites
launch autoscroll
font size
0
reset
how to read this tab
guitar tuner
×
Best way to learn
"Es Tan Bello"
Autoscroll
slow
fast
+/-
esc
set tempo
stop
hola eta es la primera tablatura q saco y tengo la
posibilidad de enviarla ojala les guste.

este es el requinto hecho por el acordeon

E.---------------------------------------------------
A.---------------------------------------------------
D.-------------------------------------3-3-3-3-3----- x2
g.-----------2-2----------0-0-------2-2--------------
b.-1-3----1-1------3-3-0-0---3-3-1-1----------1-3-1--
e.-----0-0------0-0----------------------------------

despues esta part se repite cuando se pone Am
ojala me entiendan pero cuando saquen este requinto
sabran a q me refiero

E.--------------------------------
A.--------------------------------
D.--------------------------------
g.---------------2----------------
b.-----3-1---3-1--1-0-1-----------
e.-1-0-----0----------------------

E.--------------------------------
A.--------------------------------
D.--------------------------------
g.---------------2----------------
b.-----3-1---3-1--1-0-------------
e.-1-0-----0----------0-----------


es todo gracias
Suggest correction
Give kudos to tab author, rate the tab!
1 2 3 4 5
comments
print report bad tab
guest
You may want to rate the tab now too:
select rating
Wanna post a correction for this tab? Suggest correction