Oops, an error
Loading. Please wait.

Es Tan Bello Tab

version 2
version 2

Whole song

26 views 1 this week
no commentswrite comment
1 2 3 4 5
3 more votes to show rating
add to favorites
launch autoscroll
font size
0
reset
how to read this tab
guitar tuner
×
Best way to learn
"Es Tan Bello"
Autoscroll
slow
fast
+/-
esc
set tempo
stop
 Es Tan Bello


                                    Intocable
Bajo Sexto


                         C
                         ^
     W                   W
E||-------------------|--0----------------|
B||-------------------|--1----------------|
G||-------------------|--0----------------|
D||-------------------|--2----------------|
A||-------------------|--3----------------|
E||-------------------|--3----------------|


  G                   Am
  ^                   ^
  W                   W
--3----------------|--0----------------|
--3----------------|--1----------------|
--0----------------|--2----------------|
--0----------------|--2----------------|
--2----------------|--0----------------|
--3----------------|-------------------|


  F                   C    C   G  G G  G
  ^                            v  v ^  ^
  W                   Q    E.  E  S E  Q
--1----------------|--0----0---3--3-3--3----|
--1----------------|--1----1---0--3-3--3----|
--2----------------|--0----0---0--0-0--0----|
--3----------------|--2----2---0--0-0--0----|
--0----------------|--3----3---2--2-2--2----|
--1----------------|-----------3--3-3--3----|


  Am   Am  F  F  F F F F
  ^    ^   v  v  ^ v ^ ^
  Q    E.  E  E  S S S E
--0----0---1--1--1-1-1-1--|
--1----1---1--1--1-1-1-1--|
--2----2---2--2--2-2-2-2--|
--2----2---3--3--3-3-3-3--|
--0----0---0--0--0-0-0-3--|
-----------1--1--1-1-1-1--|


  C    C   G  G G  G
           v  v ^  ^
  Q    E.  E  S E  Q
--0----0---3--3-3--3----|
--1----1---0--3-3--3----|
--0----0---0--0-0--0----|
--2----2---0--0-0--0----|
--3----3---2--2-2--2----|
-----------3--3-3--3----|


  Am   Am  F  F  F F F F
  ^    ^   v  v  ^ v ^ ^
  Q    E.  E  E  S S S E
--0----0---1--1--1-1-1-1--|
--1----1---1--1--1-1-1-1--|
--2----2---2--2--2-2-2-2--|
--2----2---3--3--3-3-3-3--|
--0----0---0--0--0-0-0-3--|
-----------1--1--1-1-1-1--|


  C    C   G  G  G G
                   PM
  Q    E.  E  E  S Q
--0----0---3--3--3-3----|
--1----1---0--3--3-3----|
--0----0---0--0--0-0----|
--2----2---0--0--0-0----|
--3----3---2--2--2-2----|
-----------3--3--3-3----|


  Am   Am  F  F  F F F F
  ^    ^   v  v  ^ v ^ ^
  Q    E.  E  E  S S S E
--0----0---1--1--1-1-1-1--|
--1----1---1--1--1-1-1-1--|
--2----2---2--2--2-2-2-2--|
--2----2---3--3--3-3-3-3--|
--0----0---0--0--0-0-0-3--|
-----------1--1--1-1-1-1--|


  C    C   G  G G  G
           v  v ^  ^
  Q    E.  E  S E  Q
--0----0---3--3-3--3----|
--1----1---0--3-3--3----|
--0----0---0--0-0--0----|
--2----2---0--0-0--0----|
--3----3---2--2-2--2----|
-----------3--3-3--3----|


  Am   Am  F  F  F F F F
  ^    ^   v  v  ^ v ^ ^
  Q    E.  E  E  S S S E
--0----0---1--1--1-1-1-1--|
--1----1---1--1--1-1-1-1--|
--2----2---2--2--2-2-2-2--|
--2----2---3--3--3-3-3-3--|
--0----0---0--0--0-0-0-3--|
-----------1--1--1-1-1-1--|


  C    C   G  G G  G
           v  v ^  ^
  Q    E.  E  S E  Q
--0----0---3--3-3--3----|
--1----1---0--3-3--3----|
--0----0---0--0-0--0----|
--2----2---0--0-0--0----|
--3----3---2--2-2--2----|
-----------3--3-3--3----|


  Am   Am  F  F  F F F F
  ^    ^   v  v  ^ v ^ ^
  Q    E.  E  E  S S S E
--0----0---1--1--1-1-1-1--|
--1----1---1--1--1-1-1-1--|
--2----2---2--2--2-2-2-2--|
--2----2---3--3--3-3-3-3--|
--0----0---0--0--0-0-0-3--|
-----------1--1--1-1-1-1--|


  C    C   G  G G  G
           v  v ^  ^
  Q    E.  E  S E  Q
--0----0---3--3-3--3----|
--1----1---0--3-3--3----|
--0----0---0--0-0--0----|
--2----2---0--0-0--0----|
--3----3---2--2-2--2----|
-----------3--3-3--3----|


  Am   Am  F  F  F F F F
  ^    ^   v  v  ^ v ^ ^
  Q    E.  E  E  S S S E
--0----0---1--1--1-1-1-1--|
--1----1---1--1--1-1-1-1--|
--2----2---2--2--2-2-2-2--|
--2----2---3--3--3-3-3-3--|
--0----0---0--0--0-0-0-3--|
-----------1--1--1-1-1-1--|


  C    C   G  G G  G
           v  v ^  ^
  Q    E.  E  S E  Q
--0----0---3--3-3--3----|
--1----1---0--3-3--3----|
--0----0---0--0-0--0----|
--2----2---0--0-0--0----|
--3----3---2--2-2--2----|
-----------3--3-3--3----|


  Am   Am  F  F  F F F F
  ^    ^   v  v  ^ v ^ ^
  Q    E.  E  E  S S S E
--0----0---1--1--1-1-1-1--|
--1----1---1--1--1-1-1-1--|
--2----2---2--2--2-2-2-2--|
--2----2---3--3--3-3-3-3--|
--0----0---0--0--0-0-0-3--|
-----------1--1--1-1-1-1--|


  C    C   G  G G  G
           v  v ^  ^
  Q    E.  E  S E  Q
--0----0---3--3-3--3----|
--1----1---0--3-3--3----|
--0----0---0--0-0--0----|
--2----2---0--0-0--0----|
--3----3---2--2-2--2----|
-----------3--3-3--3----|


  Am   Am  F  F  F F F F
  ^    ^   v  v  ^ v ^ ^
  Q    E.  E  E  S S S E
--0----0---1--1--1-1-1-1--|
--1----1---1--1--1-1-1-1--|
--2----2---2--2--2-2-2-2--|
--2----2---3--3--3-3-3-3--|
--0----0---0--0--0-0-0-3--|
-----------1--1--1-1-1-1--|


  C    C   G  G G  G
           v  v ^  ^
  Q    E.  E  S E  Q
--0----0---3--3-3--3----|
--1----1---0--3-3--3----|
--0----0---0--0-0--0----|
--2----2---0--0-0--0----|
--3----3---2--2-2--2----|
-----------3--3-3--3----|


  Am   Am  F  F  F F F F
  ^    ^   v  v  ^ v ^ ^
  Q    E.  E  E  S S S E
--0----0---1--1--1-1-1-1--|
--1----1---1--1--1-1-1-1--|
--2----2---2--2--2-2-2-2--|
--2----2---3--3--3-3-3-3--|
--0----0---0--0--0-0-0-3--|
-----------1--1--1-1-1-1--|


  C    C   G  G G  G
           v  v ^  ^
  Q    E.  E  S E  Q
--0----0---3--3-3--3----|
--1----1---0--3-3--3----|
--0----0---0--0-0--0----|
--2----2---0--0-0--0----|
--3----3---2--2-2--2----|
-----------3--3-3--3----|


  Am   Am  F  F  F F F F
  ^    ^   v  v  ^ v ^ ^
  Q    E.  E  E  S S S E
--0----0---1--1--1-1-1-1--|
--1----1---1--1--1-1-1-1--|
--2----2---2--2--2-2-2-2--|
--2----2---3--3--3-3-3-3--|
--0----0---0--0--0-0-0-3--|
-----------1--1--1-1-1-1--|


  C    C   G  G G  G
           v  v ^  ^
  Q    E.  E  S E  Q
--0----0---3--3-3--3----|
--1----1---0--3-3--3----|
--0----0---0--0-0--0----|
--2----2---0--0-0--0----|
--3----3---2--2-2--2----|
-----------3--3-3--3----|


  Am   Am  F  F  F F F F
  ^    ^   v  v  ^ v ^ ^
  Q    E.  E  E  S S S E
--0----0---1--1--1-1-1-1--|
--1----1---1--1--1-1-1-1--|
--2----2---2--2--2-2-2-2--|
--2----2---3--3--3-3-3-3--|
--0----0---0--0--0-0-0-3--|
-----------1--1--1-1-1-1--|


  C    C   G  G G  G
           v  v ^  ^
  Q    E.  E  S E  Q
--0----0---3--3-3--3----|
--1----1---0--3-3--3----|
--0----0---0--0-0--0----|
--2----2---0--0-0--0----|
--3----3---2--2-2--2----|
-----------3--3-3--3----|


  Am   Am  F  F  F F F F
  ^    ^   v  v  ^ v ^ ^
  Q    E.  E  E  S S S E
--0----0---1--1--1-1-1-1--|
--1----1---1--1--1-1-1-1--|
--2----2---2--2--2-2-2-2--|
--2----2---3--3--3-3-3-3--|
--0----0---0--0--0-0-0-3--|
-----------1--1--1-1-1-1--|


  C    C   G  G G  G
           v  v ^  ^
  Q    E.  E  S E  Q
--0----0---3--3-3--3----|
--1----1---0--3-3--3----|
--0----0---0--0-0--0----|
--2----2---0--0-0--0----|
--3----3---2--2-2--2----|
-----------3--3-3--3----|


  Am   Am  F  F  F F F F
  ^    ^   v  v  ^ v ^ ^
  Q    E.  E  E  S S S E
--0----0---1--1--1-1-1-1--|
--1----1---1--1--1-1-1-1--|
--2----2---2--2--2-2-2-2--|
--2----2---3--3--3-3-3-3--|
--0----0---0--0--0-0-0-3--|
-----------1--1--1-1-1-1--|


  C    C   G  G G  G
           v  v ^  ^
  Q    E.  E  S E  Q
--0----0---3--3-3--3----|
--1----1---0--3-3--3----|
--0----0---0--0-0--0----|
--2----2---0--0-0--0----|
--3----3---2--2-2--2----|
-----------3--3-3--3----|


  Am   Am  F  F  F F F F
  ^    ^   v  v  ^ v ^ ^
  Q    E.  E  E  S S S E
--0----0---1--1--1-1-1-1--|
--1----1---1--1--1-1-1-1--|
--2----2---2--2--2-2-2-2--|
--2----2---3--3--3-3-3-3--|
--0----0---0--0--0-0-0-3--|
-----------1--1--1-1-1-1--|


  C    C   G  G G  G
           v  v ^  ^
  Q    E.  E  S E  Q
--0----0---3--3-3--3----|
--1----1---0--3-3--3----|
--0----0---0--0-0--0----|
--2----2---0--0-0--0----|
--3----3---2--2-2--2----|
-----------3--3-3--3----|


  Am   Am  F  F  F F F F
  ^    ^   v  v  ^ v ^ ^
  Q    E.  E  E  S S S E
--0----0---1--1--1-1-1-1--|
--1----1---1--1--1-1-1-1--|
--2----2---2--2--2-2-2-2--|
--2----2---3--3--3-3-3-3--|
--0----0---0--0--0-0-0-3--|
-----------1--1--1-1-1-1--|


  C    C   G  G G  G
           v  v ^  ^
  Q    E.  E  S E  Q
--0----0---3--3-3--3----|
--1----1---0--3-3--3----|
--0----0---0--0-0--0----|
--2----2---0--0-0--0----|
--3----3---2--2-2--2----|
-----------3--3-3--3----|


  Am   Am  F  F  F F F F
  ^    ^   v  v  ^ v ^ ^
  Q    E.  E  E  S S S E
--0----0---1--1--1-1-1-1--|
--1----1---1--1--1-1-1-1--|
--2----2---2--2--2-2-2-2--|
--2----2---3--3--3-3-3-3--|
--0----0---0--0--0-0-0-3--|
-----------1--1--1-1-1-1--|


  C    C   G  G G  G
           v  v ^  ^
  Q    E.  E  S E  Q
--0----0---3--3-3--3----|
--1----1---0--3-3--3----|
--0----0---0--0-0--0----|
--2----2---0--0-0--0----|
--3----3---2--2-2--2----|
-----------3--3-3--3----|


  Am   Am  F  F  F F F F
  ^    ^   v  v  ^ v ^ ^
  Q    E.  E  E  S S S E
--0----0---1--1--1-1-1-1--|
--1----1---1--1--1-1-1-1--|
--2----2---2--2--2-2-2-2--|
--2----2---3--3--3-3-3-3--|
--0----0---0--0--0-0-0-3--|
-----------1--1--1-1-1-1--|


  C    C   G  G G  G
           v  v ^  ^
  Q    E.  E  S E  Q
--0----0---3--3-3--3----|
--1----1---0--3-3--3----|
--0----0---0--0-0--0----|
--2----2---0--0-0--0----|
--3----3---2--2-2--2----|
-----------3--3-3--3----|


  Am   Am  F  F  F F F F
  ^    ^   v  v  ^ v ^ ^
  Q    E.  E  E  S S S E
--0----0---1--1--1-1-1-1--|
--1----1---1--1--1-1-1-1--|
--2----2---2--2--2-2-2-2--|
--2----2---3--3--3-3-3-3--|
--0----0---0--0--0-0-0-3--|
-----------1--1--1-1-1-1--|


  C    C   G  G G  G
       PM  v  v ^  ^
  Q    E.  E  S E  Q
--0----0---3--3-3--3----|
--1----1---0--3-3--3----|
--0----0---0--0-0--0----|
--2----2---0--0-0--0----|
--3----3---2--2-2--2----|
-----------3--3-3--3----|


  Am   Am  F  F  F F F F
  ^    ^   v  v  ^ v ^ ^
  Q    E.  E  E  S S S E
--0----0---1--1--1-1-1-1--|
--1----1---1--1--1-1-1-1--|
--2----2---2--2--2-2-2-2--|
--2----2---3--3--3-3-3-3--|
--0----0---0--0--0-0-0-3--|
-----------1--1--1-1-1-1--|


  C    C   G  G G  G
           v  v ^  ^
  Q    E.  E  S E  Q
--0----0---3--3-3--3----|
--1----1---0--3-3--3----|
--0----0---0--0-0--0----|
--2----2---0--0-0--0----|
--3----3---2--2-2--2----|
-----------3--3-3--3----|


  Am   Am  F  F  F F F F
  ^    ^   v  v  ^ v ^ ^
  Q    E.  E  E  S S S E
--0----0---1--1--1-1-1-1--|
--1----1---1--1--1-1-1-1--|
--2----2---2--2--2-2-2-2--|
--2----2---3--3--3-3-3-3--|
--0----0---0--0--0-0-0-3--|
-----------1--1--1-1-1-1--|


  C    C   G  G  G G
                   PM
  Q    E.  E  E  S Q
--0----0---3--3--3-3----|
--1----1---0--3--3-3----|
--0----0---0--0--0-0----|
--2----2---0--0--0-0----|
--3----3---2--2--2-2----|
-----------3--3--3-3----|


  Am   Am  F  F  F F  F
  Q    E.  E  E  S E  E
--0----0---1--1--1-1--1--|
--1----1---1--1--1-1--1--|
--2----2---2--2--2-2--2--|
--2----2---3--3--3-3--3--|
--0----0---0--0--0-0--0--|
-----------1--1--1-1--1--|


  C
  ^
  Q.     H        E
--0------------------|-----|-----|-----|
--1------------------|-----|-----|-----|
--0------------------|-----|-----|-----|
--2------------------|-----|-----|-----|
--3------------------|-----|-----|-----|
--3------------------|-----|-----|-----|


  C    C   G  G G  G
           v  v ^  ^
  Q    E.  E  S E  Q
--0----0---3--3-3--3----|
--1----1---0--3-3--3----|
--0----0---0--0-0--0----|
--2----2---0--0-0--0----|
--3----3---2--2-2--2----|
-----------3--3-3--3----|


  Am   Am  F  F  F F F F
  ^    ^   v  v  ^ v ^ ^
  Q    E.  E  E  S S S E
--0----0---1--1--1-1-1-1--|
--1----1---1--1--1-1-1-1--|
--2----2---2--2--2-2-2-2--|
--2----2---3--3--3-3-3-3--|
--0----0---0--0--0-0-0-3--|
-----------1--1--1-1-1-1--|


  C    C   G  G G  G
           v  v ^  ^
  Q    E.  E  S E  Q
--0----0---3--3-3--3----|
--1----1---0--3-3--3----|
--0----0---0--0-0--0----|
--2----2---0--0-0--0----|
--3----3---2--2-2--2----|
-----------3--3-3--3----|


  Am   Am  F  F  F F F F
  ^    ^   v  v  ^ v ^ ^
  Q    E.  E  E  S S S E
--0----0---1--1--1-1-1-1--|
--1----1---1--1--1-1-1-1--|
--2----2---2--2--2-2-2-2--|
--2----2---3--3--3-3-3-3--|
--0----0---0--0--0-0-0-3--|
-----------1--1--1-1-1-1--|


  C    C   G  G G  G
           v  v ^  ^
  Q    E.  E  S E  Q
--0----0---3--3-3--3----|
--1----1---0--3-3--3----|
--0----0---0--0-0--0----|
--2----2---0--0-0--0----|
--3----3---2--2-2--2----|
-----------3--3-3--3----|


  Am   Am  F  F  F F F F
  ^    ^   v  v  ^ v ^ ^
  Q    E.  E  E  S S S E
--0----0---1--1--1-1-1-1--|
--1----1---1--1--1-1-1-1--|
--2----2---2--2--2-2-2-2--|
--2----2---3--3--3-3-3-3--|
--0----0---0--0--0-0-0-3--|
-----------1--1--1-1-1-1--|


  C    C   G  G G  G
           v  v ^  ^
  Q    E.  E  S E  Q
--0----0---3--3-3--3----|
--1----1---0--3-3--3----|
--0----0---0--0-0--0----|
--2----2---0--0-0--0----|
--3----3---2--2-2--2----|
-----------3--3-3--3----|


  Am   Am  F  F  F F F F
  ^    ^   v  v  ^ v ^ ^
  Q    E.  E  E  S S S E
--0----0---1--1--1-1-1-1--|
--1----1---1--1--1-1-1-1--|
--2----2---2--2--2-2-2-2--|
--2----2---3--3--3-3-3-3--|
--0----0---0--0--0-0-0-3--|
-----------1--1--1-1-1-1--|


  C    C   G  G G  G
           v  v ^  ^
  Q    E.  E  S E  Q
--0----0---3--3-3--3----|
--1----1---0--3-3--3----|
--0----0---0--0-0--0----|
--2----2---0--0-0--0----|
--3----3---2--2-2--2----|
-----------3--3-3--3----|


  Am   Am  F  F  F F F F
  ^    ^   v  v  ^ v ^ ^
  Q    E.  E  E  S S S E
--0----0---1--1--1-1-1-1--|
--1----1---1--1--1-1-1-1--|
--2----2---2--2--2-2-2-2--|
--2----2---3--3--3-3-3-3--|
--0----0---0--0--0-0-0-3--|
-----------1--1--1-1-1-1--|


  C    C   G  G G  G
           v  v ^  ^
  Q    E.  E  S E  Q
--0----0---3--3-3--3----|
--1----1---0--3-3--3----|
--0----0---0--0-0--0----|
--2----2---0--0-0--0----|
--3----3---2--2-2--2----|
-----------3--3-3--3----|


  Am   Am  F  F  F F F F
  ^    ^   v  v  ^ v ^ ^
  Q    E.  E  E  S S S E
--0----0---1--1--1-1-1-1--|
--1----1---1--1--1-1-1-1--|
--2----2---2--2--2-2-2-2--|
--2----2---3--3--3-3-3-3--|
--0----0---0--0--0-0-0-3--|
-----------1--1--1-1-1-1--|


  C    C   G  G G  G
           v  v ^  ^
  Q    E.  E  S E  Q
--0----0---3--3-3--3----|
--1----1---0--3-3--3----|
--0----0---0--0-0--0----|
--2----2---0--0-0--0----|
--3----3---2--2-2--2----|
-----------3--3-3--3----|


  Am   Am  F  F  F F F F
  ^    ^   v  v  ^ v ^ ^
  Q    E.  E  E  S S S E
--0----0---1--1--1-1-1-1--|
--1----1---1--1--1-1-1-1--|
--2----2---2--2--2-2-2-2--|
--2----2---3--3--3-3-3-3--|
--0----0---0--0--0-0-0-3--|
-----------1--1--1-1-1-1--|


  C    C   G  G G  G
           v  v ^  ^
  Q    E.  E  S E  Q
--0----0---3--3-3--3----|
--1----1---0--3-3--3----|
--0----0---0--0-0--0----|
--2----2---0--0-0--0----|
--3----3---2--2-2--2----|
-----------3--3-3--3----|


  Am   Am  F  F  F F F F
  ^    ^   v  v  ^ v ^ ^
  Q    E.  E  E  S S S E
--0----0---1--1--1-1-1-1--|
--1----1---1--1--1-1-1-1--|
--2----2---2--2--2-2-2-2--|
--2----2---3--3--3-3-3-3--|
--0----0---0--0--0-0-0-3--|
-----------1--1--1-1-1-1--|


  C    C   G  G G  G
           v  v ^  ^
  Q    E.  E  S E  Q
--0----0---3--3-3--3----|
--1----1---0--3-3--3----|
--0----0---0--0-0--0----|
--2----2---0--0-0--0----|
--3----3---2--2-2--2----|
-----------3--3-3--3----|


  Am   Am  F  F  F F F F
  ^    ^   v  v  ^ v ^ ^
  Q    E.  E  E  S S S E
--0----0---1--1--1-1-1-1--|
--1----1---1--1--1-1-1-1--|
--2----2---2--2--2-2-2-2--|
--2----2---3--3--3-3-3-3--|
--0----0---0--0--0-0-0-3--|
-----------1--1--1-1-1-1--|


  C    C   G  G G  G
           v  v ^  ^
  Q    E.  E  S E  Q
--0----0---3--3-3--3----|
--1----1---0--3-3--3----|
--0----0---0--0-0--0----|
--2----2---0--0-0--0----|
--3----3---2--2-2--2----|
-----------3--3-3--3----|


  Am   Am  F  F  F F F F
  ^    ^   v  v  ^ v ^ ^
  Q    E.  E  E  S S S E
--0----0---1--1--1-1-1-1--|
--1----1---1--1--1-1-1-1--|
--2----2---2--2--2-2-2-2--|
--2----2---3--3--3-3-3-3--|
--0----0---0--0--0-0-0-3--|
-----------1--1--1-1-1-1--|


  C    C   G  G G  G
           v  v ^  ^
  Q    E.  E  S E  Q
--0----0---3--3-3--3----|
--1----1---0--3-3--3----|
--0----0---0--0-0--0----|
--2----2---0--0-0--0----|
--3----3---2--2-2--2----|
-----------3--3-3--3----|


  Am   Am  F  F  F F F F
  ^    ^   v  v  ^ v ^ ^
  Q    E.  E  E  S S S E
--0----0---1--1--1-1-1-1--|
--1----1---1--1--1-1-1-1--|
--2----2---2--2--2-2-2-2--|
--2----2---3--3--3-3-3-3--|
--0----0---0--0--0-0-0-3--|
-----------1--1--1-1-1-1--|


  C    C   G  G G  G
           v  v ^  ^
  Q    E.  E  S E  Q
--0----0---3--3-3--3----|
--1----1---0--3-3--3----|
--0----0---0--0-0--0----|
--2----2---0--0-0--0----|
--3----3---2--2-2--2----|
-----------3--3-3--3----|


  Am   Am  F  F  F F F F
  ^    ^   v  v  ^ v ^ ^
  Q    E.  E  E  S S S E
--0----0---1--1--1-1-1-1--|
--1----1---1--1--1-1-1-1--|
--2----2---2--2--2-2-2-2--|
--2----2---3--3--3-3-3-3--|
--0----0---0--0--0-0-0-3--|
-----------1--1--1-1-1-1--|


  C
  ^
  Q    H.              W
--0-----------------|-------------------|
--1-----------------|-------------------|
--0-----------------|-------------------|
--2-----------------|-------------------|
--3-----------------|-------------------|
--3-----------------|-------------------|


  W                   W
-------------------|-------------------|
-------------------|-------------------|
-------------------|-------------------|
-------------------|-------------------|
-------------------|-------------------|
-------------------|-------------------|


  W                   W
-------------------|-------------------|
-------------------|-------------------|
-------------------|-------------------|
-------------------|-------------------|
-------------------|-------------------|
-------------------|-------------------|


  W                   W
-------------------|-------------------||
-------------------|-------------------||
-------------------|-------------------||
-------------------|-------------------||
-------------------|-------------------||
-------------------|-------------------||


Duration Legend
---------------
W - whole
H - half
Q - quarter
E - 8th
S - 16th
T - 32nd
X - 64th
. - note dotted
|-n-|  - n-tuplets


Tablature Legend
----------------
L - tied note
x - dead note
g - grace note
(n) - ghost note
> - accentuded note
NH - natural harmonic
AH - artificial harmonic
TH - tapped harmonic
SH - semi harmonic
PH - pitch harmonic
h - hammer on
p - pull off
b - bend
br - bendRelease
pb - preBend
pbr - preBendRelease
brb - bendReleaseBend
n/ - tremolo bar dip
n - tremolo bar dive
-/n - tremolo bar Release up
/n - tremolo bar inverted dip
/n - tremolo bar return
-n - tremolo bar Release down
S - shift slide
s - legato slide
/ -  slide into from below or out of upwards
 -  slide into from above or out of downwards
~ - vibrato
W - wide vibrato
tr - trill
TP - tremolo picking
T - tapping
S - slap
P - pop
< - fade in
^ - brush up
v - brush down
Suggest correction
Give kudos to tab author, rate the tab!
1 2 3 4 5
comments
print report bad tab
guest
You may want to rate the tab now too:
select rating
Wanna post a correction for this tab? Suggest correction