Oops, an error
Loading. Please wait.

Fuerte No Soy Bass Tab

4,417 views 6 this week
no commentswrite comment
1 2 3 4 5
please rate
add to favorites
launch autoscroll
font size
0
reset
guitar tuner
Tab Pro tools
  • play this tab
  • loop segment
  • change instrument
  • show fretboard
  • metronome
×
Best way to learn
"Fuerte No Soy"
Autoscroll
slow
fast
+/-
esc
set tempo
stop
Contributor
Difficulty
intermediate
Intro
G|-----------------------------------------------|
D|12~--11h12p11--11\9~--9\--------------7Harmonic|
A|------------------------0000000000320~---------|
E|-----------------------------------------------|

Verse
G|-----14h16p14--12\11-11h12p11-------------------------|
D|7/12-------------------------12\9-9-11h12p11-12-14/17~|
A|------------------------------------------------------|
E|------------------------------------------------------|

G|-----3h4p3-4-6-7-6-4-------------6h7p6-4-------------|
D|7\44-----------------7-5~-4h5p4----------7-7Harmonic-|
A|-------------------------------7---------------------|
E|-----------------------------------------------------|

G|--------------------------------------------|
D|----------------45~-7h9p7-------------------|
A|5~---------4-5-7---5------7h9p75------------|
E|---3-5~--7-----------------------5h7-5h7-5-3|

G|------------------------------------------------------|
D|-------4---------4---------------9--------------------|
A|--------------------2-4-5-7-910~--1097~-5-------------|
E|2-202-2-2-2-202-2-2----------------------75~-532~/14\-|

Chorus
G|---------------------------------| (2x)
D|-----------------45~-54----------|
A|5~----------4-5-7------7~-5------|
E|---0235-6-7----------------53-20-|

G|--------------------------------------|
D|--9-1011~-------40--------------------|
A|------------------2~---------------5~-|
E|3----------02~-2------5-3~-2-0~-5~----|

(2x)
G|-----------------------------------------------------------|-------------|
D|----97-7------97-7------75-5------75-5---------------------|-----55------|
A|------9-9-------9-9-------7-7-------7-7-----75-5------75-5-|-------------|
E|7-77------7-77------5-55------5-55------0-00--7-7-0-00--7-7|55-3---22-0~-|

|----------------------------------------------|
|-----------1411-----129------11-16-14-11------|
|00000000-12----12-10---10-910-----------12-9--|
|----------------------------------------------|

Chorus
G|--------------------------------------------------------------------|(2x)
D|-----------------97-7-----97-7--------------------------------------|
A|55555--------------9-9------9-9-1010101010109977777755--------------|
E|-----023555667-77-----7-77----------------------------55-3-3-22-0-0-|

G|--------------------------------------------------------------------|
D|--------------------------------------------------------------------|
A|------------------------22222------------------------55555797777757-|
E|333333335555555522222222-----333333330000002355555555---------------|

|-----------------------------------------|
|-----------------------------------------|
|--------------------------------------5--|
|777777779107777777733333333000000005-----|


(2x) Final
G|-------------------------------------------------------------------------|
D|----97-7------97-7------75-5------75-5---------------------------55------|
A|------9-9-------9-9-------7-7-------7-7-----75-5------75-5---------------|
E|7-77------7-77------5-55------5-55------0-00--7-7-0-00--7-7-55-3---22-0~-|
comments
We did not receive enough feedback on this tab! Please rate:
print report bad tab
1 2 3 4 5
I want to post or [tab]
guest
You may want to rate the tab now too:
select rating
Please do not post tabs as comments. Select "correction" instead!