Oops, an error
Loading. Please wait.

Fuertemente Tab

53 views 1 this week
no commentswrite comment
1 2 3 4 5
3 more votes to show rating
add to favorites
launch autoscroll
font size
0
reset
how to read this tab
guitar tuner
Autoscroll
slow
fast
+/-
esc
set tempo
stop
Help us to improve Ultimate-Guitar.com Take our survey!
×
|------Intocable-------|
  'Sigo queriendote'

Dedicada a esa persona que que siempre estara en mi corazon aunque las cosas no sucedieron como queriamos.
Por que solo el destino tiene la respuesta a esa pregunta.
Para tii!!!!va esto----!!!!!

Intro:-
LA-DO#m-RE-SIm-MI

((((Repetir 2 veces))))
1|-0--7/9--9-9---9--11--12--11--9------------------------------------------------------------------------------------------|
2|-------------------------------12--10--9-9-9---9--10--12--10--9-----------------------9--10--9-------------------------7-|
3|----------------------------------------------------------------11--9--11-11-11---11------------11--9--11--9-9-9--7h9----|
4|-------------------------------------------------------------------------------------------------------------------------|
5|-------------------------------------------------------------------------------------------------------------------------|
6|-------------------------------------------------------------------------------------------------------------------------|

LA            
Dime donde ha quedado,
DO#m      
Todo lo que nos juramos,
RE
Dime donde has dejado,
SIm                     MI      
El amor que te he entregado.

LA
Dime como has olvidado,
DO#m      
Los momentos que pasamos,
RE
Dime como hiciste tu,
SIm                     MI      
para no extrañar mis labios.

CORO:-
      LA
Por que yo
             DO#m
no he podido conseguir
                     RE
ni un minuto donde no estes tu 
SIm              MI
pasando por mi mente


     LA           
Dime tu
            DO#m
como debo olvidar
                  RE
para ya no sentir el dolor
SIm                MI 
que me mata lentamente
RE                      
siempre nos amamos igual
       SIm            MI
pero tu me pudiste olvidar
MI7                       LA
y yo sigo queriendote fuertemente.

Acompañamiento:-
RE-MI-LA-FA#m-SIm-MI

1|14------14--14--16--17--16--14----14-14------14-14-------------------------14--16--14----------------------------|
2|----15-------------------------17------17-17-------17-17--14-17-14-17--17--------------17--15--14--15--14--15--14|
3|-----------------------------------------------------------------------------------------------------------------|
4|-----------------------------------------------------------------------------------------------------------------|
5|-----------------------------------------------------------------------------------------------------------------|
6|-----------------------------------------------------------------------------------------------------------------|


1|-----------------------------------------------------------------------------------------------------------------|
2|-14--13----------------------------------------------------------------------------------------------------------|
3|--------16--14--13---9-10-9-10-9-10-9-10-9-10--------------------------------------------------------------------|
4|-----------------------------------------------------------------------------------------------------------------|
5|-----------------------------------------------------------------------------------------------------------------|
6|-----------------------------------------------------------------------------------------------------------------|


CORO:-
      LA
Por que yo
             DO#m
no he podido conseguir
                     RE
ni un minuto donde no estes tu 
SIm              MI
pasando por mi mente


     LA           
Dime tu
            DO#m
como debo olvidar
                  RE
para ya no sentir el dolor
SIm                MI 
que me mata lentamente
RE                      
siempre nos amamos igual
       SIm            MI
pero tu me pudiste olvidar
MI7                   LA        SIb     LA      
y yo sigo queriendote fuertemente.


Acordes:-

LA      DO#m       RE      SIm       MI      MI7      FA#m        SIb

6-0      6-4      6-0      6-2      6-0      6-0      6-2        6-1      
5-0      5-4      5-0      5-2      5-2      5-2      5-4        5-1       
4-2      4-6      4-0      4-4      4-2      4-0      4-4        4-3       
3-2      3-6      3-2      3-4      3-1      3-1      3-2        3-3      
2-2      2-5      2-3      2-3      2-0      2-0      2-2       2-3 
1-0      1-4      1-2      1-2      1-0      1-0      1-2       1-1
Suggest correction
Give kudos to tab author, rate the tab!
1 2 3 4 5
comments
print report bad tab
guest
You may want to rate the tab now too:
select rating
Wanna post a correction for this tab? Suggest correction