Oops, an error
Loading. Please wait.

No Te Vayas Tab

69 views 1 this week
no commentswrite comment
1 2 3 4 5
3 more votes to show rating
add to favorites
×
Save as Personal and add changes to this tab that will be seen only by you. Learn more ›
×
You can save this tab as Personal to edit and correct it or add notes. All changes will be seen only by you. Learn more »
save as personal
new!
launch autoscroll
font size
0
reset
how to read this tab
guitar tuner
Autoscroll
slow
fast
+/-
esc
set tempo
stop
q pe banda, aki les djo sto dedicado para "MAITE GALVAN"
d parte mia, saludos el poder trillizo q m pidio un
saludo y al chavo q la pidio
intro:

G-----------------------------------------------------
B-----12----------------------13-12--13-13-13-13-13-13
e-9h10--9h10-10-12-12-14-12-10------------------------

G-----------------------------------------------------
B---13-10h12-10-10h12-10------------------------------
e-10--------------------------------------------------

G-----------------------------------------------------
B-----12----------------------13-12--13-13-13-13-13-13
e-9h10--9h10-10-12-12-14-12-10------------------------

G--------------------------12h14-12-------------------
B---13-10h12-10-10h12-10------------------------------
e-10--------------------------------------------------


G#               Cm
Te quiero demasiado
           C#
para olvidarte
          D#
en unas horas
G#                  Cm
porque me haces daño
           C#
porque me dejas
   D#
ahora

C#                   D#
Que no me ves muriendo
 C#            D#
mi alma se acaba
 C#                       D#
y no puedo vivir sin calma

 G#               Cm
Pero no, no te vayas
 C#                    D#
no me dejes sin tu amor
   G#                  Cm
necesito sentir de nuevo
  C#                D#
el fuego de tu pasión

 G#                Cm
Pero no, no te vayas
 C#                        D#
no seas cruel con mi corazón
 G#               Cm
pero no, no te vayas
 C#                       D#
no me dejes un triste adiós


G--12h14-12-------------
B-----------------------
e-----------------------
SOLO:

G-----------------------------------------------------
B-----12----------------------13-12--13-13-13-13-13-13
e-9h10--9h10-10-12-12-14-12-10------------------------

G-----------------------------------------------------
B---13-10h12-10-10h12-10------------------------------
e-10--------------------------------------------------

G-----------------------------------------------------
B-----12----------------------13-12--13-13-13-13-13-13
e-9h10--9h10-10-12-12-14-12-10------------------------

G--------------------------12h14-12-------------------
B---13-10h12-10-10h12-10------------------------------
e-10--------------------------------------------------


G#               Cm
Eres lo que amo
       C#              D#
y no acepto que te vayas
G#               Cm
me pierdo en la marea

 C#                  D#
y mis lagrimas se acaban


G#               Cm
Pero no, no te vayas
 C#                    D#
no me dejes sin tu amor
   G#                  Cm
necesito sentir de nuevo
  C#                D#
el fuego de tu pasión

 G#                Cm
Pero no, no te vayas
 C#                        D#
no seas cruel con mi corazón
 G#               Cm
pero no, no te vayas
 C#                       D#
no me dejes un triste adiós
Suggest correction
Give kudos to tab author, rate the tab!
1 2 3 4 5
comments
print report bad tab
guest
Wanna post a correction for this tab? Suggest correction