Oops, an error
Loading. Please wait.

Por Un Beso Tab

14 views 1 this week
no commentswrite comment
1 2 3 4 5
3 more votes to show rating
add to favorites
launch autoscroll
font size
0
reset
how to read this tab
guitar tuner
Autoscroll
slow
fast
+/-
esc
set tempo
stop
Help us to improve Ultimate-Guitar.com Take our survey!
×
                   G(aqui solo ponen sol y arpegean las cuerdas)
e------------------------3------
B--------------------------0----
G----------------------------0--
D--2-4h-4-2-0----------0--------
A-------------3-0----2----------
E------------------3------------  Esto se repite tres veces y las primeras dos estrofas
                                  se arpegean en el mismo orden en como se arpegea Sol.

   G                Em            Am               D7
e--------3----------------0--------------0----------------2------
B----------0----------------0--------------1------------1---1----
G------------0----------------0--------2-----2--------2-------2--
D------0----------------2------------2--------------0------------
A----2----------------2------------0-----------------------------
E--3-----------------0-------------------------------------------


G
Como poder confesarle 
                    Em
gritar todo lo que siento
Am
que por dentro estoy muriendo
             D7
por un beso suyo me estoy consumiendo

G
Ni siquiera se imagina
                    Em
que llena mis pensamientos
Am
y por temor no me atrebo
                D7
a llevarle una rosa 

y decirle te quiero


FsAqui cambia el ritmo, ya no es arpegeado, lleva bajeo y un rasgueo en cada tono:
las cuerdas que estan solas son las que se bajean
       G     Em     Am    D7
e------3-----0------0-----2----
B------0-----0------1-----1----
G------0-----0------2-----2----
D------0-----2------2---0-0----
A------2-----2--2-0-0--0--0----
E-3----3-3-0-0-----------------

G             Em
Y cuando se acerca 
              Am
me quedo si fuerzas 
               D7
con ganas de amarle
G                        Em
cada noche esta en mis sueños
              Am                  D7
y cuando despierto me siento su dueño

G               Em
Como poder abrazarla 
             Am              D7
decirle al oido cuanto la deseo
   G                 Em
quiero romper las cadenas
              Am
del maldito miedo 
             D7                 G     *despues lleva un requintillo o bajeo o 
un beso quisiera robarle y no puedo    como lo quieran llamar. Nota: la h es de martilleo

e---------------------------------------------------------------
B---------------------------------------------------------------
G---------------------------------------------------------------
D--2-4h-4-2-0-----0-----0-------0-2-0---2-0---2-----------------
A-------------3-0---2-----2---2-------3-----3---3-3-3-3-2-----0-
E---------------------3-----3-----------------------------3-3---

Despues de tocar la ultima cuerda (A-0), empiezas de nuevo con el otro patron:
       G     Em     Am    D7
e------3-----0------0-----2------------------------
B------0-----0------1-----1------------------------
G------0-----0------2-----2------------------------
D------0-----2------2---0-0------------------------
A------2-----2--2-0-0--0--0------------------------
E-3----3-3-0-0-------------------------------------

G-Em-Am-D7
G-Em-Am-D7
G-Em-Am-D7 y aqui en el ultimo D7 empiezas a arpegearlo para empezar de nuevo en 
           la estrofa:

G
Ni siquiera se imagina
                    Em
que llena mis pensamientos
Am
y por temor no me atrebo
                D7
a llevarle una rosa 

y decirle te quiero

Y aqui se repite de nuevo el patron con bajeo

       G     Em     Am    D7
e------3-----0------0-----2------------------------
B------0-----0------1-----1------------------------
G------0-----0------2-----2------------------------
D------0-----2------2---0-0------------------------
A------2-----2--2-0-0--0--0------------------------
E-3----3-3-0-0-------------------------------------

G             Em
Y cuando se acerca 
              Am
me quedo si fuerzas 
               D7
con ganas de amarle
G                        Em
cada noche esta en mis sueños
              Am                  D7
y cuando despierto me siento su dueño

G               Em
Como poder abrazarla 
             Am              D7
decirle al oido cuanto la deseo
   G                 Em
quiero romper las cadenas
              Am
del maldito miedo 
             D7                 G      
un beso quisiera robarle y no puedo   

Y por ultimo se toca el bajeo del principio  varias veces.
                   G
e------------------------3------
B--------------------------0----
G----------------------------0--
D--2-4h-4-2-0----------0--------
A-------------3-0----2----------
E------------------3------------


Nota: tal ves les paresca mucho rollo pero pues asi va la rola, en la otra que esta, 
esta muy simple y pues como esta es una de mis 4 canciones favoritas, pues quise mejorarla
Si no le entienden a algo no dueden en mandarme un mail. Aun asi chequenla con la 
cancion, y veran que esta correcta toda, el unico problema tal ves es que no tengan 
afinada bien la guitarra, pero de que esta correcto esta correcto.

De nueva cuenta le mando un gran saludo a todos mis compañeros del coro, muy especialmente 
para mi amiga Karolina, y para ely a la cual amo con todo mi ser.
Suggest correction
Give kudos to tab author, rate the tab!
1 2 3 4 5
comments
print report bad tab
guest
You may want to rate the tab now too:
select rating
Wanna post a correction for this tab? Suggest correction