Oops, an error
Loading. Please wait.

Te Sigo Amando Tab

31 views 1 this week
no commentswrite comment
1 2 3 4 5
3 more votes to show rating
add to favorites
×
Save as Personal and add changes to this tab that will be seen only by you. Learn more ›
×
You can save this tab as Personal to edit and correct it or add notes. All changes will be seen only by you. Learn more »
save as personal
new!
launch autoscroll
font size
0
reset
how to read this tab
guitar tuner
Autoscroll
slow
fast
+/-
esc
set tempo
stop
Empieza con un arpegeo el cual se repite dos veces
e-------0-2-0---------0-2-0------------
B-----3-------3-----3-------3----------
G---2-------------2-----------2-0------
D-0-------------0-----------------0-2--
A--------------------------------------
E--------------------------------------

Despues lleva arpegeos en casi toda la cancion. 

D: se arpegea de esta manera
e-------0-2-0---
B-----3-------3-
G---2-----------
D-0-------------
A---------------
E---------------

Em: se arpegea asi:
e-------2-3-0--------
B-----------------
G-----0------------
D---2--------------
A-2----------------
E-----------------

A7:Puedes arpegearlo de la manera que mas les parezca al igual que
   los otros tonos.
 
D
Se que lloras por las noches
                
intentando olvidarme
Em
y que sufres cuando piensas
    A
que ya encontre un nuevo amor
                D
y que pude olvidarte


Tu no cres 

que perderte para mi fue insoportable
Em
nisiquiera te imaginas
     A
que cada vez que hablaban de ti
               D     A7
yo salia a buscarte

Em      
Si supieras que el dolor
           A7
me ha enseñado a valorarte
       Em
y la  vida sin tu amor
        A7       G   F#m Em A7
ya mepezaba  a fastidiarme

         D 
Por eso hoy vine a buscarte 
                        G                           
para decirte que aun te amo
      F#m     Em
que lloro a diario y que estoy muy triste
               A7
por que te extraño

         D
Por eso hoy vine a rogarte 
                             G
que me perdones, si te hice daño
       F#m   Em                            
que olvides todo que ya es pasado
               A7
y que vuelvas por favor 
         Em     A7       D
por que aun te sigo amando

D Em G A7 D A7
D Em G A7 D

Em      
Si supieras que el dolor.......

         D
Por eso hoy vine a rogarte 
                             G
que me perdones, si te hice daño
       F#m   Em                            
que olvides todo que ya es pasado
               A7
y que vuelvas por favor 
         Em     A7       D
por que aun te sigo amando

e-------0-2-0---------0-2-0------------------0-2-
B-----3-------3-----3-------3--------------3-----
G---2-------------2-----------2-0--------2-------
D-0-------------0-----------------0-2--0---------
A------------------------------------------------
E------------------------------------------------


Nota: trate de sacar la rola lo mas exacta que pude. No la pongo toda como la toco realmente 
por que es mucho rollo, casi toda si no es que toda la cancion va arpegeada, pero escuchandola 
y con esta pequeña ayuda, les saldra bien. Mientras tanto intentare sacar mas rolas del Cd. Ah
y si quieren los demas adornos, me escriben a foxhound_ger@ Y disfruten esta cancion 
que para mi gusto es de las mejores del Cd

Saludos, a todos mis amigos y amigas del coro de Santa Cruz en guadalupe Nuevo Leon.
Suggest correction
Give kudos to tab author, rate the tab!
1 2 3 4 5
comments
print report bad tab
guest
Wanna post a correction for this tab? Suggest correction