Oops, an error
Loading. Please wait.

Vete Ya Bass Tab

37 views 1 this week
no commentswrite comment
1 2 3 4 5
3 more votes to show rating
add to favorites
launch autoscroll
font size
0
reset
guitar tuner
Autoscroll
slow
fast
+/-
esc
set tempo
stop
Help us to improve Ultimate-Guitar.com Take our survey!
×
INTOCABLE - VETE YA

INTRO
B.------------4---------------------------------------------
E.--------6-4---4----------------------4---4------6---------
A.--4-4-3----------------3-----------4---4---4--6---6--7----
D.-----------------1-2-3---3-6-3-6-3---------------------6--
G.----------------------------------------------------------

B.----4------------------------------------
E.--4---4-----------4---4------6-----------
A.--------------3-4---4---4--6---6--7------
D.--------1-2-3------------------------6---
G.-----------------------------------------

VERSO
Fui el mejor postor...
B.----4-------------------------------------------
E.--4---4-------------------4---4------6----------
A.--------------3---3-----4---4---4--6---6--7-----
D.--------1-2-3---3---3-----------------------6---
G.----------------------5-------------------------

Coro
Vete ya,(vete ya)...
B.----------------------------------------------------------
E.---4-4---4--3-3---3---1------------4---4------6-----------
A.-------------------------0-1-2-3-4---4---4--6---6-----6---
D.-------6--------5-----------------------------------8-----
G.--------------------------------------------------8-------

Vete ya,(vete ya)...
B.------------------------------------------------------------
E.---4-4---4--3-3---3---1------------4---4------6---6-----4---
A.-------------------------0-1-2-3-4---4---4--6---6---6-------
D.-------6--------5-------------------------------------------
G.------------------------------------------------------------

Y TODO SE VUELVE A REPETIR
ESPERO QUE LES SIRVA.
Suggest correction
Give kudos to tab author, rate the tab!
1 2 3 4 5
comments
print report bad tab
guest
You may want to rate the tab now too:
select rating
Wanna post a correction for this tab? Suggest correction