Oops, an error
Loading. Please wait.

Espero Que La Vida Bass Tab

52 views 1 this week
no commentswrite comment
1 2 3 4 5
3 more votes to show rating
add to favorites
launch autoscroll
font size
0
reset
guitar tuner
Autoscroll
slow
fast
+/-
esc
set tempo
stop
Help us to improve Ultimate-Guitar.com Take our survey!
×
entra con un slide del traste 15 al 3 de E


lo unico no voy a trabajar
G|------|------|------|------|-------|------|------|------|
D|------|------|------|5---7-|-------|------|------|5-7-5-|
A|------|-5----|-7----|------|-------|5-----|7-----|------|
E|-3----|------|------|------|3------|------|------|------|
lo unico no voy a trabajar
|------|------|------|------|------|------|------|------|
|------|------|------|5---7-|------|------|------|5-7-5-|
|------|5-----|7-----|------|------|5-----|7-----|------|
|3-----|------|------|------|3-----|------|------|------|
para ningun viejo de mierda
|------|------|------|------|------|------|------|------|
|------|0-----|------|------|------|------|------|5-7-5-|
|5-----|----4-|3-----|2---0-|------|5-----|7-----|------|
|------|------|------|------|3-----|------|------|------|
para ningun viejo de mierda
|------|2---4-|------|------|------|------|------|------|
|----4-|------|------|------|------|------|-----5|7-5-3-|
|5-----|------|3---2-|1---0-|------|5-----|7-----|------|
|------|------|------|------|3-----|------|------|------|


parte instrumental...
|------|------|------|------|------|------|------|------|
|------|------|------|------|------|------|------|---0--|
|7-----|------|7-----|----5-|7-----|-----5|7-5---|3-----|
|------|7-----|------|77----|------|7-----|------|------|

|------|------|------|------|------|------|------|------|
|5-----|------|5-----|---3--|5-----|-----3|5-3---|2-0---|
|------|5-----|------|55----|------|5-----|------|------|
|------|------|------|------|------|------|------|------|

|------|------|------|------|------|------|------|------|
|------|------|------|------|------|------|------|------|
|7-----|------|7-----|----5-|7-----|-----5|7-5---|3-0---|
|------|7-----|------|77----|------|7-----|------|------|

|------|------|------|------|------|------|------|------|
|-----7|------|-----5|------|------|------|------|------|
|5-----|----5/|3-----|-----3|2-2---|1-1---|0-0---|------|
|------|------|------|------|------|------|------|4-4---|

    HACE LO MISMO DE ANTES
    ANTES PERO CAMBIA ESTO NADA MAS
                     |      |
                     |      |
                     v      v
|------|------|------|------|------|------|------|------|
|------|------|------|55--7-|------|------|------|5-7-5-|
|------|5-----|7-----|------|------|-5----|-7----|------|
|3-----|------|------|------|-3----|------|------|------|
Suggest correction
Give kudos to tab author, rate the tab!
1 2 3 4 5
comments
print report bad tab
guest
You may want to rate the tab now too:
select rating
Wanna post a correction for this tab? Suggest correction