Oops, an error
Loading. Please wait.

Fuiste Lo Mejor Tab

104 views 1 this week
no commentswrite comment
1 2 3 4 5
3 more votes to show rating
add to favorites
launch autoscroll
font size
0
reset
how to read this tab
guitar tuner
Autoscroll
slow
fast
+/-
esc
set tempo
stop
Help us to improve Ultimate-Guitar.com Take our survey!
×
[RIFF 1] 5|-3/5-3-2-0-2-|

[RIFF 2] 5|-3/5-3-2--3-|


Intro: G-C-G

[VERSO]

G                                  C               G
Yo no creo que este todo bien si salto por la ventana
G                        Em           Am                  D
todo fue muy bueno y extraño hoy tu cuerpo en mi habitacion
G                                C                 G
y perdona si te lastime pero queria que esto terminara
G                  D        C          G  RIFF 1
lamento no haber sido lo mejor...para vos

Cuando te deje y te dije que por un par de años mas te amaria
porque aunque no quiera estoy pensando como pude alejarme de vos
pero se bien que te olvidaré pero hasta que llegue ese día
quiero que sepas que fuiste lo mejor

EN BASE AL VERSO:

[SOLO]

e|------7------7--7h8----7h8-7-----|
B|-----8------8----------------7h8-|
G|-6h7----6h7--------7h9-----------|
D|---------------------------------|
A|---------------------------------|
E|---------------------------------|

[ARMONICA 1]

e|-------------------------15~~-12-------
B|-12-13-15br-13/12--13-15---------13-15-
G|---------------------------------------
D|---------------------------------------
A|---------------------------------------
E|---------------------------------------


e|----------15~----------------------------------
B|-12-13-15-----12-13-15--------12-12-13-13/15br-
G|-----------------------12~--12-----------------
D|-----------------------------------------------
A|-----------------------------------------------
E|-----------------------------------------------

e|-----------------------------------|
B|-13-15-12~----12-13--12-13-13/15br-|
G|------------12---------------------|
D|-----------------------------------|
A|-----------------------------------|
E|-----------------------------------|


Bm                   G
Dame un tiempo para poderlo pensar
   Am                       C              D    RIFF1
es que estoy rodeado de emociones que me ahogan...

Bm             RIFF1   G                RIFF2
Pensé en decirte de intentar una vez mas
C                 D
pero no quisiera comenzar de nuevo...

[VERSO]

Y yo no se si esta todo bien si salto por la ventana
todo fue muy bueno y extraño hoy tu cuerpo en mi habitacion
y perdona si te lastime pero queria que esto terminara...
lamento no haber sido lo mejor...para vos...

EN BASE AL VERSO:

[SOLO]

[ARMONICA 2]

e|-------------------------------------------12-15~-|
B|-12-13-15~-13-12-12---------------12-13-15--------|
G|-------------------12~--12-14~-14-----------------|
D|--------------------------------------------------|
A|--------------------------------------------------|
E|--------------------------------------------------|


Eso es todo
este tema te lo dedico a vos luly...
a pesar d q cortamos y d todo eso, t sigo amando nena
porque fuiste sos y seras lo mejor...TE AMO

cualkier duda keja o lo q sea mandan mail a
lalos_boca20@
Aguante el Rock n' roll y nada mas,
es algo que los chetos no pueden entender!
Suggest correction
Give kudos to tab author, rate the tab!
1 2 3 4 5
comments
print report bad tab
guest
You may want to rate the tab now too:
select rating
Wanna post a correction for this tab? Suggest correction