Oops, an error
Loading. Please wait.

Las Cosas Que No Se Tocan Tab

version 2
version 2

Whole song

93 views 3 this week
no commentswrite comment
1 2 3 4 5
3 more votes to show rating
add to favorites
launch autoscroll
font size
0
reset
how to read this tab
guitar tuner
Autoscroll
slow
fast
+/-
esc
set tempo
stop
Help us to improve Ultimate-Guitar.com Take our survey!
×
Intro

Guitarra 1: (RIFF)
e|--------------------------------------------------
B|--------------------------------------------------
G|----2----------2----------2-----------------------
D|--2---2-2----2---2-2----2---2-2-----2----2--2-----
A|--0---0-0----0---0-0----0---0-0-----0----0--0-----
E|---------------------------------3p---3p----------
Guitarra 2:
e|--------------------------------------------------
B|-------------------------------------------------
G|-------------------------------------------2-----
D|------------2-----------2----------2---2h4----2--
A|----------0-----------0----------0-----------0---
E|-------------------------------------------------

e|-------------------------------------------
B|-------------------------------------------
G|------------------------------------5b-2---
D|------------2--------------2---------------
A|----------0-------------0------------------
E|-------------------------------------------


Guitarra 1: (RIFF BASE)
e|-------------------------------------------
B|-------------------------------------------
G|---2----------2----------2-----------------
D|-2---2-2----2---2-2----2---2-2-----2-----2-
A|-0---0-0----0---0-0----0---0-0-----0-----0-
E|-------------------------------3p-----3p---


Con Riff de base durante el tema

ME gustan las chicas
me gustan las drogas
me gusta mi guitarra
james brown y Madonna

Me gustan los perros
me gusta mi estéreo
me gusta la calle
y algunas otras cosas

             RE
pero lo que más me gusta
         LA              Riff
Son las cosas que no se tocan

e|--------------------------
B|--------------------------
G|--5h7-5-7b-7b-7b-5--------
D|-------------------7~-----
A|--------------------------
E|--------------------------

me gusta el dinero
para comprarme lo que quiero
me gustan als visitas
para matar el tiempo

me gusta esa luz
me gusta esta sombre
me gusta los grupos
que no estan de moda

me gustan loas autos
los trenes, los barcos
me gusta que al que espero
no tarde mas de un rato

con riff de base

me gusta el arroz
me gusta el puchero
me gusta el amarillo
el rojo, el verde y el negro

             RE
pero lo que mas me gusta
         LA               Riff
son las cosas que no se tocan

por eso me gusta el rock.

e|----------------
B|----------------
G|----------------
D|---7-7-7~-------
A|----------------
E|----------------

el rock

e|-------------------
B|-------------------
G|--7ba--7ba-5-------
D|-------------7~----
A|-------------------
E|-------------------

porque yo al rock no lo toco

e|-----------------
B|-----------------
G|-----------------
D|--5-5h7~---------
A|-----------------
E|-----------------

yo al rock lo escucho, lo trago

e|------------------
B|------------------
G|--7-7ba-----------
D|------------------
A|------------------
E|------------------

lo digiero, lo vuelvo a tragar

e|------------------
B|------------------
G|--5h7b--5---5-----
D|----------7-------
A|------------------
E|------------------

hasta que, el quiera

e|-------------------
B|-------------------
G|------5h7b---------
D|--5-7-------7~-----
A|-------------------
E|-------------------

que ya no este aca, y ahi me va a clavar

e|------------------------
B|------------------------
G|--5h7b-5---5-5h7b-------
D|---------7--------7~----
A|------------------------
E|------------------------

una puñalada en las achuras, en la espalda y sangrare,
 y sangrare... si

e|-----------------5---------
B|----------------------8----
G|--7ba--2-------7b---7------
D|---------------------------
A|---------------------------
E|---------------------------

pero esa sangre es rock, que mancha las calles

e|-------------------
B|-------------------
G|--7b---7ba-5-------
D|----7--------------
A|-------------------
E|-------------------

que come los gusanos, en el cementerio

e|----5----------5----------5-----------------
B|--------8----------8----------8-------------
G|--7b--7------7b--7------7b--7-------7ba~----
D|--------------------------------------------
A|--------------------------------------------
E|--------------------------------------------

esa carne podrida, llena de pastillas

e|---------------------
B|---------------------
G|--5h7b-5-------------
D|---------7-----------
A|---------------------
E|---------------------

llena de pastillas

e|------------------
B|--12b-------------
G|-----14~----------
D|------------------
A|------------------
E|------------------

que es un asco

e|---------------
B|---------------
G|--5b-----------
D|-----7---------
A|---------------
E|---------------

que es un asco

e|-------------
B|-------------
G|--7ba--------
D|-------------
A|-------------
E|-------------

que es un asco pero no deja de ser rock

e|----5----------5---------5------------
B|--------8---------8---------8---------
G|--7b--7-----7b--7-----7b--7-----------
D|--------------------------------------
A|--------------------------------------
E|--------------------------------------

el maldito rock

e|--------------------------------------------
B|--5h8-5-5h8-5-5h8-5-5h8-5---(varias veces)--
G|--------------------------------------------
D|--------------------------------------------
A|--------------------------------------------
E|--------------------------------------------

el rock sin receta yo lo compro

e|--------------------------------
B|--------------------------------
G|--5h8b-5h8b-5h8b---5h8b-5-------
D|--------------------------7-5---
A|--------------------------------
E|--------------------------------

en un "    ", cerca de casa, si pero mejor no lo digo porque
 vamos todos presos

e|-----------------------------------
B|-----------------------------------
G|--10----10----10----10-----10------
D|--12b~--12b~--12b~--12ba~--12ba~---
A|-----------------------------------
E|-----------------------------------

y no quiero y no quiero porque eso no es rock, eso no es rock
eso no es rock

no es rock, no es rock, no es rock
no es rock, no es rock, no es rock
eso no es rock, no es rock no es rock
no es rock, no es rock, no es rock
no es rock, no es rock


VIBRATO = ~

ESTIRAR LA CUERDA (PARA ABAJO) = p

ESTIRAR CUERDA (PARA ARRIBA) = b

ESTIRAR LA CUERDA PARA ARRIBA Y ABAJO = ba

"INTERRUMPIR SONIDO" = h


UFF, bueno ahi esta todo completo, jaja, medio limado el tema.
Aguante Intoxicados y Viejas Locas
Suggest correction
Give kudos to tab author, rate the tab!
1 2 3 4 5
comments
print report bad tab
guest
You may want to rate the tab now too:
select rating
Wanna post a correction for this tab? Suggest correction