Oops, an error
Loading. Please wait.

Me Vuelvo Al Sudeste Tab

8 views 1 this week
no commentswrite comment
1 2 3 4 5
3 more votes to show rating
add to favorites
launch autoscroll
font size
0
reset
how to read this tab
guitar tuner
Autoscroll
slow
fast
+/-
esc
set tempo
stop
Help us to improve Ultimate-Guitar.com Take our survey!
×
Intro: A - D X5  Riff 1


  Riffs

   1                           2
e|---------------------------|--------------------
B|---------------------------|--------------------
G|----con-palm-mute----------|--------------------
D|---------------------------|-2-4--2-4--2-4--2-4-
A|-0-0-3h4--0-0-3h4--0-0-3h4-|-0-0--0-0--0-0--0-0-
E|---------------------------|--------------------


A                             D
Cuando mi chica  me dijo que se iba a marchar,

A                             D
agarre las valijas y me puse a empacar,

A                             D
tome unos cuantos tragos de vino con limon

A5 Riff 2
para olvidar el momento y tener mas valor

A                            D
pare con bronca un taxi que venia por ahi

A5 Riff 2             D
estaba muy loco no sabia donde ir,

A                             D
le dije decidido que me lleve a Guillon,

A    Riff 1
y me dijo que me quede q el sudeste es mejor.


    A5               D
Me vuelvo al sudeste

    A5               D
Me vuelvo al sudeste

    A5               D
Me vuelvo al sudeste

A5 Riff 1
Me vuelvo al sudeste


       A5                       D
A mi chica no le importa si me pisa un camión

   A5                            D
se fue con un peruano que es un Guns and Roses

    A5                         D
que viene a media noche y le hace creer

  A5 Riff 1
que se va a casar con ella si se entrega otra vez


 A5                   D
Eso me deprime y me quiero ir

   A5             D
y el 97 que me sacara de aquí

    A5                       D
le dije al gordito que me lleve a Morón

A5 Riff 1
y me dijo que me quede que el sudeste es mejor.


        A5             D
Y me vuelvo al sudeste,

    A5              D
yo vuelvo al sudeste,

   A5                 D
me vuelvo al sudeste,

     A5             D
yo vuelvo al sudeste.


Solo

e|-------------------------------------------------------------
B|----8-10v--10--10--10--10--10b--10b--10b--12b-12b-12b--------
G|-s9----------------------------------------------------------
D|--------------------------(cada-vez-estirando-mas-arriba)----
A|-------------------------------------------------------------
E|-------------------------------------------------------------


e|----------------------8b---10b--------------------17-----17--
B|---8-10-10v------8-10---------------20b--20b--20b----20b-----
G|-9------------s9---------------------------------------------
D|-------------------------------------------------------------
A|-------------------------------------------------------------
E|-------------------------------------------------------------


                         1:51
e|-----17-----17-----17--------------------------------------17vv-17vv
B|-20b----20b----20b----------20-----20-----20-----20-----20----------
G|------------------------19b----19b----19b----19b----19b-------------
D|--------------------------------------------------------------------
A|--------------------------------------------------------------------
E|--------------------------------------------------------------------


e|-17v--17v--17v--17v-
B|-20b--20b--20b--20b-
G|--------------------
D|--------------------
A|--------------------
E|--------------------
Suggest correction
Give kudos to tab author, rate the tab!
1 2 3 4 5
comments
print report bad tab
guest
You may want to rate the tab now too:
select rating
Wanna post a correction for this tab? Suggest correction