Oops, an error
Loading. Please wait.

Noche Con Amigos Tab

41 views 1 this week
no commentswrite comment
1 2 3 4 5
3 more votes to show rating
add to favorites
launch autoscroll
font size
0
reset
how to read this tab
guitar tuner
Autoscroll
slow
fast
+/-
esc
set tempo
stop
Help us to improve Ultimate-Guitar.com Take our survey!
×
Intro

   G        C         G       C                   G
e|-------------------------------------------------------------
B|-----------------------------------------12-15-15v-----------
G|--------------14//--12v---------------12---------------------
D|--------------------------------12-14------------------------
A|----------------------------s14------------------------------
E|-------------------------------------------------------------

    C       G      C                  G
e|--15v------------12--15-14-12------------
B|------------------------------15-13-12---
G|-----------------------------------------
D|-----------------------------------------
A|-----------------------------------------
E|-----------------------------------------


Riffs

   1                           2
e|---------------------------|--------------------10-10------
B|-13-12-10-----13-12--------|-13-12-10----13-13--------12v--
G|----------12--------12-12v-|----------12-------------------
D|---------------------------|-------------------------------
A|---------------------------|-------------------------------
E|---------------------------|-------------------------------

   3         4         5                             6
e|---------|---------|--10-----------------------|-10---------10v|
B|-10ba----|-10ba-7v-|-----10--10p7---7----------|----10---------|
G|------7v-|---------|--------------9---9p7---7v-|-------9b..----|
D|---------|---------|----------------------9----|---------------|
A|---------|---------|---------------------------|---------------|
E|---------|---------|---------------------------|---------------|


     G          C
Hay noche con amigos,

         G             D Dsus4
corre la sal corre el vino

    G               C
yo corro de tras de todo,

          G                D
no me resisto a doblar el codo


Am  (riff 1)    C
No te asustes tanto mujer,

G          D
eso pasa siempre

Am (riff 2)    C
yo no soy tu suerte mi amor,

G         D
somos diferentes.


La acompañé hasta la salida,
se hizo muy larga la despedida
ella se fue y ese no era el trato,
y aquí la fiesta da para rato

Mientras se alejaba el amor,
me quede brindando, salud!
mientras se alejaba ese amor,
me quede cantando


      G           C            D   Riff 3
Si no se como llegué, como me iré

      G           C               D
si no tengo ni un lugar donde volver


         Am            C
Y entre las calles desiertas,

       G             Em
voy buscando una respuesta

       C
y no tengo nada, nada, nada

              D
que le voy a hacer?


        G                 C
Cayó la noche, se hizo de día

    G                D
se acabó lo que yo tenía

            G             C
miro en el vaso no queda nada,

            G                D
y encima el sol me pega en la cara


Mientras se alejaba el amor,
me quede brindando, salud!
mientras se alejaba ese amor,
me quede cantando.


       G         C              D   Riff 3
Si no se como llegué, como me iré

       G         C                D  Riff 5
si no tengo ni un lugar donde volver

       G         C              D   Riff 6
Si no se como llegué, como me iré

      G             C             D
si no tengo ni un lugar donde volver


Y entre las calles desiertas,
voy buscando una respuesta
y no tengo nada, nada, nada
que le voy a hacer?

Que le puedo hacer?
si al fin y al cabo tengo que volver
mi mujer, ella es mi jefa, encima la quiero
aunque no quiera tengo que volver...
Suggest correction
Give kudos to tab author, rate the tab!
1 2 3 4 5
comments
print report bad tab
guest
You may want to rate the tab now too:
select rating
Wanna post a correction for this tab? Suggest correction