Oops, an error
Loading. Please wait.

Reggae De Mirtha Bass Tab

89 views 12 this week
no commentswrite comment
1 2 3 4 5
3 more votes to show rating
add to favorites
launch autoscroll
font size
0
reset
guitar tuner
Autoscroll
slow
fast
+/-
esc
set tempo
stop
Help us to improve Ultimate-Guitar.com Take our survey!
×
BUENO ESTA ES LA CORRECION.. MAS Q NADA LOS PUSE EN ORDEN Y
CAMBIE ALGO DEL ESTRIBILLO..


esta es la base INTRO

G|----------|-----------|----------|----------|
D|----------|-----------|----------|----------|
A|----------|------3----|5-------5-|-7--------|
E|5---5/3---|5-3-5------|----------|----------|


aca es cuando empieza el tema..


G|-------------|-------------|-------------|-------------|
D|-------------|-------------|-------------|-------------|
A|-------------|---------3---|-5---5/3-----|-------3-2---|
E|5---5/3------|5--3--5------|-------------|-----5-------|


G|-------------|-------------|-------------|-------------|
D|-------------|-------------|-------------|-------------|
A|-------------|------3------|--5---5------|--7---7------|
E|5---5/3------|5-3-5--------|-------------|-------------|


G|-------------|-------------|-------------|-------------|
D|-------------|-------------|-------------|-------------|
A|-------------|---------3---|-5---5/3-----|-------3-2---|
E|5---5/3------|5--3--5------|-------------|-----5-------|


G|-------------|-------------|-------------|-------------|
D|-------------|-------------|-------------|-------------|
A|-------------|------3------|--5-------5--|-7------3-2--|
E|5---5/3------|5-3-5--------|-------------|------5------|


ESTRIBILLO:
G|-------------|-------------|-------------|-------------|
D|-------------|-------------|-------------|-------------|
A|-------------|-------------|-5---5/3-----|-------3-2---|
E|5---5/3------|-0-2/3--0--5-|-------------|-----5-------|


G|-------------|-------------|-------------|-------------|
D|-------------|-------------|-------------|-------------|
A|-------------|-------------|-5--5--------|-7--7--------|
E|5---5/3------|-0-2/3--0--5-|-------------|-------------|


G|-------------|-------------|-------------|-------------|
D|-------------|-------------|-------------|-------------|
A|-------------|-------------|-5---5/3-----|-------3-2---|
E|5---5/3------|-0-2/3--0--5-|-------------|-----5-------|


G|-------------|-------------|-------------|-------------|
D|-------------|-------------|-------------|-------------|
A|-------------|-------------|-5--5--------|-7--7--------|
E|5---5/3------|-0-2/3--0--5-|-------------|-------------|

esta es la sengunda parte que va despues que dice..
 (yo no se mucho de rock, he sido joven en alguna ves.
pero vamos a un corte señor director?)


  yo ya se que hay gente que....
G|-------------|-------------|-------------|-------------|
D|-------------|-------------|-------------|-------------|
A|-------------|---------3---|-5---5/3-----|-------3-2---|
E|5---5--------|------5------|-------------|-----5-------|


G|-------------|-------------|-------------|-------------|
D|-------------|-------------|-------------|-------------|
A|-------------|------3------|--5---5------|--7---7------|
E|5---5/3------|5-3-5--------|-------------|-------------|


G|-------------|-------------|-------------|-------------|
D|-------------|-------------|-------------|-------------|
A|-------------|---------3---|-5---5/3-----|-------3-2---|
E|5---5/3------|5--3--5------|-------------|-----5-------|


G|-------------|-------------|-------------|-------------|
D|-------------|-------------|-------------|-------------|
A|-------------|------3------|--5---5------|--7---7------|
E|5---5/3------|5-3-5--------|-------------|-------------|


AHORA VIENE EL ESTRBILLO
HASTA Q DICE..(bueno bueno como dije hoy ...)
CAMBIA A LA INTRODUCCION TODA IGUAL HASTA EL FINAL ..

ESPERO Q LES SIRVA...
cualquier duda, queja o correcion manden al mail de arriba..


SE LA DEDICO A AL AMOR DE MI VIDA FLOR(PELLU) QUE LA AMO
 Y QUE ADEMAS ES FANATICA DE INTOXICADOS..

SALUDOS
Suggest correction
Give kudos to tab author, rate the tab!
1 2 3 4 5
comments
print report bad tab
guest
You may want to rate the tab now too:
select rating
Wanna post a correction for this tab? Suggest correction