Oops, an error
Loading. Please wait.

Reggae Para Los Amigos Tab

version 1
version 1

Whole song

86 views 1 this week
no commentswrite comment
1 2 3 4 5
3 more votes to show rating
add to favorites
launch autoscroll
font size
0
reset
how to read this tab
guitar tuner
Autoscroll
slow
fast
+/-
esc
set tempo
stop
Help us to improve Ultimate-Guitar.com Take our survey!
×
Intro: F#m

e|---------------
B|---------------
G|---------------  x4
D|---------------
A|------4-5-4--2-
E|-2-2-----------


F#m
Me gusta el raggea y yo quiero dejar en claro mi mensaje
no me agrada esa gente que con gestos demuestran bien
su expresión, esta canción yo la hice para todos mis queridos
amigos, con este humilde ritmo les digo, los admiro y necesito

Bm
Y voy dejar que las palabras salgan solas la energía que me dan
es lo que hace latir a mi corazón, nunca estoy solo porque con
mi imaginación siempre está cerca a quien debo yo agradecer
este bonito regalo que la vida me dio.

Intro

F#m
Que buena familia me tocó y que buenos amigos pude encontrar
no se si fue casualidad pero creo que tuve mucha suerte.
no es fácil cruzarse con gente con tanta onda conectada a tan
loca frecuencia es que un amigo es un hermano un maestro
es parte de pasado.

Bm
Y voy dejar que las palabras salgan solas la energía que me dan
es lo que hace latir a mi corazón

Bm
Y voy dejar que las palabras salgan solas la energía que me dan
es lo que hace latir a mi corazón, nunca estoy solo porque con
mi imaginación siempre está cerca a quien debo yo agradecer
este bonito regalo que la vida me dio.

~: Hacer vibrar
s: Deslizar

1)---10s12~--------------------------------------------
2)----------------------------------------8s10--9s12~--
3)------------9-11s12s11-9---9-11s12s11-9--------------
4)-----------------------------------------------------
5)-----------------------------------------------------
6)-----------------------------------------------------

1)--10s12-10----------------------------------------------------
2)----------13-12--12s13s12-10-12-8---7-7-7s8s7-----------------
3)-----------------------------------9----------9-7--7--7s9s7---
4)--------------------------------------------------9--------9--
5)--------------------------------------------------------------
6)--------------------------------------------------------------

1)--------------------------------------------------------
2)-------------------------------------10-8-7-7s8s7-------
3)-------------------------------9---7-------------7------
4)--------------9--9-12s11-9--9-9-------------------9-----
5)----10-9-12-10------------------------------------------
6)--12----------------------------------------------------

1)--12-10---------10-9-7-----10-9-7---9-7-------------------------
2)--------10-12---------10---------10----10-8-7----7s8s7----------
3)-9--9--9-------------------------------------9-7-------9-7-9s11-
4)----------------------------------------------------------------
5)----------------------------------------------------------------
6)----------------------------------------------------------------


F#m
Me gusta el raggea y yo quiero dejar en claro mi mensaje
no me agrada esa gente que con gestos demuestran bien
su expresión, esta canción yo la hice para todos mis queridos
amigos, con este humilde ritmo les digo, los admiro y necesito
Suggest correction
Give kudos to tab author, rate the tab!
1 2 3 4 5
comments
print report bad tab
guest
You may want to rate the tab now too:
select rating
Wanna post a correction for this tab? Suggest correction