Oops, an error
Loading. Please wait.

Reggae Para Los Amigos Bass Tab

version 2
version 2

Whole song

100 views 1 this week
no commentswrite comment
1 2 3 4 5
3 more votes to show rating
add to favorites
launch autoscroll
font size
0
reset
guitar tuner
Autoscroll
slow
fast
+/-
esc
set tempo
stop
Help us to improve Ultimate-Guitar.com Take our survey!
×
INTRO

G|--------------------------------------------------
D|--------------------------------------------------
A|---9-9--7-7--9-----7--9-9?-7-7--9-----------------
E|----------------9--------------------------------- X3

G|------------------------------------------------------------------
D|------------------------------------------------------------------
A|---9-9-9--7-7--9-----7--9-9?-7-7--9-------------------------------
E|------------------9-------------------5-7--7-5--------------------

G|----------------------------------------    -----------------
D|----------------------------------------    -----------------
A|---9-9-9--7-7--9-----7--9-9?-7-7--9-----    -----------------
E|------------------9--------------------- X2 ----7h0----------

G|--------------------------------------------------
D|--------------------------------------------------
A|----9-9--7-7--9-----7--9-9?-7-7--9----------------
E|-----------------9-------------------------------- X2

G|----------------------------------------------------------------
D|----------------------------------------------------------------
A|----9-9--7-7--9------7------9-9--7-7--9-------------------------
E|----------------9-9----9--------------------5-7--7-5------------

ESTROFA

G|---------------------------------------    ------------------
D|---------------------------------------    -----7-9-9-7------
A|------9-9--7-7--9-----7--9-9?-7-7--9---    ------------------
E|-------------------9------------------- X2 ------------------

G|--------------------------------------------------------------
D|--------------------------------------------------------------
A|------9-9--7-7--9-----7--9-9?-7-7--9--------------------------
E|-------------------9-------------------5-7-7-5----------------

G|-----------------------------------------------
D|-----------------------------------------------
A|------9-9--7-7--9-----7--9-9?-7-7--9-----------
E|-------------------9--------------------7h0----

ESTRIBILLO

G|------------------------------------------------------
D|---------------------------------0-2-0-2-0------------
A|-----2-2-0-0-2-----0-2-2-0-0-2-------------2-2--0-----
E|----------------2---------------------------------2---

G|------------------------------------------------------
D|------------------------------------------------------
A|---2-2-2--0-0-2-----0---------------------------------
E|-----------------2------------------------------------

G|------------------------------------------------------------------
D|---------------------------------0-2-0-2-0------------------------
A|-----2-2-0-0-2-----0-2-2-0-0-2-------------2-2--0-----2-2-2--0-0-2
E|----------------2---------------------------------2---------------


(ESTROFA)

(ESTRIBILLO)


SOLO


G|-----------------------------------------    -----------------------
D|-----------------------------------------    ----9h0------9h0---9h0-
A|------7-7?5-5-7-----5--7-7?-5-5--7-------    -----------------------
E|-----------------7----------------------- X4 --------1h7------------


(ESTROFA)

SEGUNDO SOLO

G|---------------------------------------------------------
D|---------------------------------------------------------
A|----9-9--7-7--9------7------9-9--7-7--9------------------
E|----------------9-9----9--------------------5-7--7-5----- X4


h= Arrastrar tocando una vez la cuerda
Seguramente Faltará algun detalle, pero en general creo que esta bien! jeje
Suggest correction
Give kudos to tab author, rate the tab!
1 2 3 4 5
comments
print report bad tab
guest
You may want to rate the tab now too:
select rating
Wanna post a correction for this tab? Suggest correction