Oops, an error
Loading. Please wait.

Reggae Para Los Amigos Tab

version 2
version 2

Whole song

20 views 1 this week
no commentswrite comment
1 2 3 4 5
3 more votes to show rating
add to favorites
launch autoscroll
font size
0
reset
how to read this tab
guitar tuner
Autoscroll
slow
fast
+/-
esc
set tempo
stop
Help us to improve Ultimate-Guitar.com Take our survey!
×
E-12b--------------------------------10h12-10-------------------
B----------------------------8/10-12----------13-12-12/13-10-12-
G------9-11/12-9--11/12-9------------------------------------
D---------------------------------------------------------------
A---------------------------------------------------------------
E---------------------------------------------------------------

E-----------------------------------
B-----------------------------------
G-12-9-11-11/12-11-9---------9------
D--------------------12-9-12---12-9-


E---------------------------------------------------------12-10-------
B---------------------------------------------------------------10-12-
G-----------------------------9----14-12-11-11h12---------------------
D-------------9--9-12-11--9-9----12--------------12-9---9---9--9------
A---10-9-10-12----------12--------------------------------------------
E-12------------------------------------------------------------------

E-10-9-7---10-9-7--9-7----------------------------
B-------10-------10---10-8-7---7h8-7--------------
G---------------------------9-7-----9-7-9/11-11---


abia un error pero ya lo corregi :d

Saludos cualuier consulta sergioceballes@
o 

Nos vemos la semana pasada!!!
Suggest correction
Give kudos to tab author, rate the tab!
1 2 3 4 5
comments
print report bad tab
guest
You may want to rate the tab now too:
select rating
Wanna post a correction for this tab? Suggest correction