Oops, an error
Loading. Please wait.

Reggae Para Los Amigos Tab

version 3
version 3

Whole song

25 views 1 this week
no commentswrite comment
1 2 3 4 5
3 more votes to show rating
add to favorites
launch autoscroll
font size
0
reset
how to read this tab
guitar tuner
Autoscroll
slow
fast
+/-
esc
set tempo
stop
Help us to improve Ultimate-Guitar.com Take our survey!
×
Le hice algunas modificaciones a la transcripcion anterior..
Creo que ahi esta perfecta. Practiquenla que es facil


~: Hacer vibrar
s: Deslizar

1)---10s12~--------------------------------------------
2)----------------------------------------8s10--9s12~--
3)------------9-11s12s11-9---9-11s12s11-9--------------
4)-----------------------------------------------------
5)-----------------------------------------------------
6)-----------------------------------------------------

1)--10s12-10----------------------------------------------------
2)----------13-12--12s13s12-10-12-8---7-7-7s8s7-----------------
3)-----------------------------------9----------9-7--7--7s9s7---
4)--------------------------------------------------9--------9--
5)--------------------------------------------------------------
6)--------------------------------------------------------------

1)--------------------------------------------------------
2)-------------------------------------10-8-7-7s8s7-------
3)-------------------------------9---7-------------7------
4)--------------9--9-12s11-9--9-9-------------------9-----
5)----10-9-12-10------------------------------------------
6)--12----------------------------------------------------

1)--12-10---------10-9-7-----10-9-7---9-7-------------------------
2)--------10-12---------10---------10----10-8-7----7s8s7----------
3)-9--9--9-------------------------------------9-7-------9-7-9s11-
4)----------------------------------------------------------------
5)----------------------------------------------------------------
6)----------------------------------------------------------------
Suggest correction
Give kudos to tab author, rate the tab!
1 2 3 4 5
comments
print report bad tab
guest
You may want to rate the tab now too:
select rating
Wanna post a correction for this tab? Suggest correction