Oops, an error
Loading. Please wait.

Rock Del Vuelo 20773 Tab

11 views 1 this week
no commentswrite comment
1 2 3 4 5
3 more votes to show rating
add to favorites
launch autoscroll
font size
0
reset
how to read this tab
guitar tuner
Autoscroll
slow
fast
+/-
esc
set tempo
stop
Help us to improve Ultimate-Guitar.com Take our survey!
×
  Primer solo

e|-------------------------------------------------------------
B|---5-8--5----------------------------8-10-9-8----------------
G|-7--------7-5---3-4---------------s9----------10-8s7-6s7-----
D|--------------------5------------------------------------8---
A|----------------------5-3------------------------------------
E|--------------------------s6-3-3-----------------------------


e|---------------------------------------------------12-------
B|----------------------------8-8----8------------12----12-15-
G|--------------------------7------7-----------12-------------
D|-5-8-7-6-5------8h9-10-11-----------------12----------------
A|-------------10------------------------12-------------------
E|------------------------------------------------------------


e|----------------------------------------
B|-13-12----------------------------------
G|-------12-------------------------------
D|----------12--10--8s9-------------------
A|----------------------10----------------
E|-------------------------10-8--6s7-3-3--


  Segundo solo
e|-------------------------------------------------------------
B|-----------15------15-14-15-15--11h12---------10--13-12------
G|--------------------------------------12---------------------
D|-12-11-12-------12-------------------------12----------------
A|-------------------------------------------------------------
E|-------------------------------------------------------------


e|------------8-----------------8----------------------------
B|-------9h10----9h10------9h10----9h10----------8-----------
G|----10---------------10---------------10---8h9----8h9------
D|-12---------------------------------------------------10---
A|-----------------------------------------------------------
E|-----------------------------------------------------------


e|----------7-6-7--10-9-8-10-7-------6-7-8-9-10---6-7--------------
B|----8----------------------------8------------8-----8---------8-8
G|8h9---8h9--------------------7-9----------------------7----------
D|--------------------------------------------------------10-8-9---
A|-----------------------------------------------------------------
E|-----------------------------------------------------------------
Suggest correction
Give kudos to tab author, rate the tab!
1 2 3 4 5
comments
print report bad tab
guest
You may want to rate the tab now too:
select rating
Wanna post a correction for this tab? Suggest correction