Oops, an error
Loading. Please wait.

Un Beso Y Una Flor Tab

version 2
version 2

Whole song

18 views 1 this week
no commentswrite comment
1 2 3 4 5
3 more votes to show rating
add to favorites
launch autoscroll
font size
0
reset
how to read this tab
guitar tuner
Autoscroll
slow
fast
+/-
esc
set tempo
stop
Help us to improve Ultimate-Guitar.com Take our survey!
×
    Dejare mi tierra por ti    dejare los campos y me iré    lejos de aquí
E-------------------------------------------0----------------------------
B------2-2-2-2-3-2-0-2------------2-2-2-2-2---3----2-0-------------------
G--------------------------------------------------------------2-2-4-2---
D------------------------------------------------------4-----------------
A---0--------------------------0-----------------------------------------
E--0--------------------------0------------------------------------------

Cruzare llorando el jardín   y con tus recuerdos partiré    lejos de aquí
E---------------------------------------0-------------------------------
B---------2-2-2-2-3-2-0-2-------2-2-2-2---3-2-0--------------------------
G-------------------------------------------------------------2-2-4-2----
D-----------------------------------------------4------------------------
A------0----------------------0------------------------------------------
E-----0----------------------0-------------------------------------------

de día viviré  pensando en tus sonrisas de noche las estrellas ....
e-----------------------------------------------------------------------
B--2-7-7-7-5-7-----3-5-5-5-7-2-0--------------2-7-7-7-5-7-7-5-3-5-7-2---
G-----------------------------------------------------------------------
D-----------------------------------------------------------------------
A-----------------------------------------------------------------------
E-----------------------------------------------------------------------

    serás como una luz      que alumbra mi camino
E-------------------------------------------------
B-----2-7-7-7-5-7------------------3-5-5-5-7-2-0--
G-------------------------------------------------
D-------------------------------------------------
A-------------------------------------------------
E-------------------------------------------------

        me voy pero te juro     que mañana volveré
E----------------------------------------------------------------
B--0--3---3-2--3--2--0--------------2-0-----------------2-2-2----
G-------------------------------4-2-----4-2-4--------------------
D----------------------------------------------------------------
A----------------------------------------------------------------
E----------------------------------------------------------------


 al partir     un beso y una flor       (fijarse esta parte con el tema)
E--------------------------------------------0-0-0-0-0h2------------------
B--2-2-0--------2-0----------------------2-3-------------3-2h0------------
G-------------------2-2---2-------------------------------------2-6-4-2---
D-----------------------4-------------------------------------------------
A-------------------------------------------------------------------------
E-------------------------------------------------------------------------

 es ligero equipaje    para tan largo viaje  las penas pesan en el corazón
E--0-2-2-2-0------------0--------------------------------0----------------
B-2----------2------------3-2--------------------------2---3-2------------
G-----------------------------4-2------------------2-2---------4-2-4------
D---------------------------------4-2------------2------------------------
A-------------------------------------------------------------------------
E-------------------------------------------------------------------------

 mas allá    del mar habrá un lugar     donde el sol cada mañana brille mas
E--------------------------------------------0-0-0-0-0h2------------------
B--2-2-0--------2-0----------------------2-3-------------3-2h0------------
G-------------------2-2---2-------------------------------------2-6-4-2---
D-----------------------4-------------------------------------------------
A-------------------------------------------------------------------------
E-------------------------------------------------------------------------

forjaran mi destino  las piedras del camino lo que no se es querido ....
E--0-2-2-2-0------------0--------------------------------0----------------
B-2----------2------------3-2--------------------------2---3-2------------
G-----------------------------4-2------------------2-2---------4-2-2------
D---------------------------------4-2------------2-------------------6-7--
A-------------------------------------------------------------------------
E-------------------------------------------------------------------------
Suggest correction
Give kudos to tab author, rate the tab!
1 2 3 4 5
comments
print report bad tab
guest
You may want to rate the tab now too:
select rating
Wanna post a correction for this tab? Suggest correction