Oops, an error
Loading. Please wait.

Un Gran Camping Tab

version 1
version 1

Whole song

18 views 1 this week
no commentswrite comment
1 2 3 4 5
3 more votes to show rating
add to favorites
launch autoscroll
font size
0
reset
how to read this tab
guitar tuner
Autoscroll
slow
fast
+/-
esc
set tempo
stop
Help us to improve Ultimate-Guitar.com Take our survey!
×
Hola gente soy francisco..a pedido de la gente aca les paso este
punteo terriblee de intoxicados.
No se como suena con una viola electrica porq yo lo saq con
una criolla..quisas por eso tenga algunos errores pero a mi me
suena ~igual~.
escuchen bien las parts en la q toca bastante rapido tienen q
fijarse bien como hace.
cualquier duda mandenme un email a  fran082@
espero q les sirva de algo..saludos

v:estirar la cuerda
h:ligado
(): lo hace varias veces


1:15
1)--------------------------------------------------------------
2)--7-5--------5---7-5---7-5--------------------------------------------
3)--7-5v-------5v--7-5v--7-5v---6v5-6v5---(2h5-5-2h4-4)...--6v5-6v5-----
4)-7----7---5-7--7-----7-----7--------------------------------------
5)--------------------------------------------------------------
6)--------------------------------------------------------------

(varias veces)            (varias veces)
1--------------------------------------------------------------
2-(5h8-8-5h7-7)...--9v8-9v8-(10h13-13-10h12-12)...-------------
3--------------------------------------------------------------
4--------------------------------------------------------------
5--------------------------------------------------------------
6--------------------------------------------------------------

1--------------------------------------------------------------
2--14v13--14v-14v-14v-13--10.....(se repit unas 13 veces-------
3--------------------------------------------------------------
4--------------------------------------------------------------
5--------------------------------------------------------------
6--------------------------------------------------------------

(esto va rapdisimo)
1------------------------0-5-3-5-3-5-3-5-3-0-8-6-8-6-8-6-8-6---
2--(8-10-7-8-5-7-3-5)------------------------------------------
3--------------------------------------------------------------
4--------------------------------------------------------------
5--------------------------------------------------------------
6--------------------------------------------------------------

1---9-7-9-7-9-7-9-7--10-8-10-8-10-8-10--11-9-11-9-11-9-11-9-
2--------------------------------------------------------------
3--------------------------------------------------------------
4--------------------------------------------------------------
5--------------------------------------------------------------
6--------------------------------------------------------------

1---12-10-12-10-12-10-12-10--13-11-13-11-13-11-13-11-----------
2--------------------------------------------------------------
3--------------------------------------------------------------
4--------------------------------------------------------------
5--------------------------------------------------------------
6--------------------------------------------------------------

                                  (muchas veces)
1---14-12-14-12-14-12-14-12--15-16--17v-17v-17-17v-17......----
2--------------------------------------------------------------
3--------------------------------------------------------------
4--------------------------------------------------------------
5--------------------------------------------------------------
6--------------------------------------------------------------

(tan rapido q no se entiende una mierda)
1---15-17-13-15-12-13-10-8-10-6-8-4-6-3-4-3-0------------------
2--------------------------------------------------------------
3--------------------------------------------------------------
4--------------------------------------------------------------
5--------------------------------------------------------------
6--------------------------------------------------------------

aguante viejas locas!!
Suggest correction
Give kudos to tab author, rate the tab!
1 2 3 4 5
comments
print report bad tab
guest
You may want to rate the tab now too:
select rating
Wanna post a correction for this tab? Suggest correction