Oops, an error
Loading. Please wait.

Un Gran Camping Tab

version 2
version 2

Whole song

7 views 1 this week
no commentswrite comment
1 2 3 4 5
3 more votes to show rating
add to favorites
launch autoscroll
font size
0
reset
how to read this tab
guitar tuner
Autoscroll
slow
fast
+/-
esc
set tempo
stop
Help us to improve Ultimate-Guitar.com Take our survey!
×
INTRO

2ª guitarra
        1º              2º               3º               4º
e)---------------|---------------|---------------|--------------
b)---------------|---------------|---------------|--------------
g)---------------|---------------|---------------|--------------
d)---------------|---------------|---------------|--------------
a)-7--7--9--7--9-|-7--7--9--7--9-|-7--7--9--7--9-|-7--7--9--7--9
e)-5--5--5--5--5-|-5--5--5--5--5-|-5--5--5--5--5-|-5--5--5--5--5

      5º                6º              7º                  8º
|----------------|---------------|---------------|--------------
|----------------|---------------|---------------|--------------
|----------------|---------------|---------------|--------------
|----------------|---------------|---------------|--------------
|-7--7--9--7--9--|-7--7--9--7--9-|-7--7--9--7--9-|-7--7--9--7--9
|-5--5--5--5--5--|-5--5--5--5--5-|-5--5--5--5--5-|-5--5--5--5--5


1ª guitarra(mucho mas fuerte)
     1º           2º         3º          4º
e)----------|-----------|----------|------------|
b)----------|-----------|----------|------------|
g)----------|-----------|----------|------------|
d)----------|-----------|----------|------------|
a)----------|-----------|----------|------------|
e)----------|-----------|----------|------------|

     5º           6º             7º                8º
|----------|-------------|---------------|----------------|R
|----------|-------------|---------------|----------------|E
|----------|-------------|---------------|----------------|P
|----------|-------------|---------------|----------------|I
|9--7>>----|7--9--7>>----|-7--7--9--7--9-|-7--7--9--7--9--|T
|5--5>>----|5--5--5>>----|-5--5--5--5--5-|-5--5--5--5--5--|E


1ª guitarra
d)-6h4h6h4h6h4h6h4h6h4?


 1ª guitarra
d)--7--7------7--7------7--7------|
a)--7--7--x--7--7--x--7--7-------|
e)--5--5--x--5--5--x--5--5-------|

2ª  guitarra
d)--7>>-----7>>-----7>>--------|
a)--7>>-----7>>-----7>>--------|
e)--5>>-----5>>-----5>>--------|

 1ª guitarra
g)--------7--7-------7--7-----7--7------|
d)--------7--7--x---7--7--x---7--7------|
a)--------5--5--x---5--5--x---5--5------|

2ª  guitarra
g)--7>>--------7>>---------7>>-------|
d)--7>>--------7>>---------7>>-------|
a)--5>>--------5>>---------5>>-------|


Solo
E)-------------------------------------------------------------
B)-------------------------------------------------------------
G)-------------------------------------------------------------
D)--------7-10^-7---7-10^-7-12-10^-7-12-10^-7------------------
A)------9-----------9------------------------------------------
E)-------------------------------------------------------------


E)-------------------------------------------------------------
B)-------------------------------------------------------------
G)5b-5b----2h6h2h6h2h5h2h5-2h6h2h6h2h5h2h5---------------------
D)-------------------------------------------------------------
A)-------------------------------------------------------------
E)-------------------------------------------------------------

E)-------------------------------------------------------------
B)-----------5h8h5h8h5h7h5h7-5h8h5h8h5h7h5h7-------------------
G)-6b-6b-------------------------------------------------------
D)-------------------------------------------------------------
A)-------------------------------------------------------------
E)-------------------------------------------------------------

E)-------------------------------------------------------------
B)-8b-88b-8---9h12h9h12h9h11h9h11-9h12h9h12h9h11h9h11----------
G)-------------------------------------------------------------
D)-------------------------------------------------------------
A)-------------------------------------------------------------
E)-------------------------------------------------------------

E)-------------------------------------------------------------
B)-13b-13-13b-13-13-13-13-12-10/8/6/55555----------------------
G)-------------------------------------------------------------
D)-------------------------------------------------------------
A)-------------------------------------------------------------
E)-------------------------------------------------------------


E)-0-4-2-|-0-6-4-|-0-8-6-|-0-10-8-|-0-12-10-|-0-13-12-|-0-15-13
B)-------------------------------------------------------------
G)-------------------------------------------------------------
D)-------------------------------------------------------------
A)-------------------------------------------------------------
E)-------------------------------------------------------------
Repite cada parte varias veces?


E)-|-0-16-15-|-18-18-18-18-18-18-18 ---------------------------
B)-------------------------------------------------------------
G)-------------------------------------------------------------
D)-------------------------------------------------------------
A)-------------------------------------------------------------
E)-------------------------------------------------------------


Bueno una saludo para la novena!!

El mecha
Suggest correction
Give kudos to tab author, rate the tab!
1 2 3 4 5
comments
print report bad tab
guest
You may want to rate the tab now too:
select rating
Wanna post a correction for this tab? Suggest correction