Oops, an error
Loading. Please wait.

Volver A Casa Bass Tab

49 views 1 this week
no commentswrite comment
1 2 3 4 5
1 last vote to show rating
add to favorites
launch autoscroll
font size
0
reset
guitar tuner
Autoscroll
slow
fast
+/-
esc
set tempo
stop
Help us to improve Ultimate-Guitar.com Take our survey!
×
Esto entra despues de la bateria y lo hace en casi toda la cancion

G----------------------------------
D---------4--3--2--0---------------
A--2--0---------------2------------
E--------2-------------------------

y despues cuando dice:
"pero ahora nena quisiera volver"
hace:

G----------------------------------
D----------------------------------
A--2--2--2------222----------------
E----------------------------------

el estribillo es:

G----------------------------------
D----------------------------------
A--77----77------77-55-44-22-------
E-----77----77---------------------
esto se engancha en lo q sigue abajo

G----------------------------------
D---------4--3--2--0---------------
A--2--0---------------2------------
E--------2-------------------------
esto lo repite 2 veces y vuelve con lo anterior
Suggest correction
Give kudos to tab author, rate the tab!
1 2 3 4 5
comments
print report bad tab
guest
You may want to rate the tab now too:
select rating
Wanna post a correction for this tab? Suggest correction