Oops, an error
Loading. Please wait.

Volver A Casa Tab

version 2
version 2

Whole song

58 views 1 this week
no commentswrite comment
1 2 3 4 5
3 more votes to show rating
add to favorites
launch autoscroll
font size
0
reset
how to read this tab
guitar tuner
Autoscroll
slow
fast
+/-
esc
set tempo
stop
Help us to improve Ultimate-Guitar.com Take our survey!
×
  Riff Principal
e|-------------------------------------
B|-------------------------------------
G|----4--4-4--4-3-2-0-----con-palm-mute
D|----4--4-4--4-3-2-0------------------
A|-2-----------------------------------
E|-------------------------------------

  Riff 2     Riff 3            Riff 4
e|-0-------|-7-x-7-x-x-7-x-7-|---------|
B|-0-------|-7-x-7-x-x-7-x-7-|---------|
G|-1-------|-----------------|-4-3-2-0-|
D|-2-------|-----------------|-4-3-2-0-|
A|-2-------|-----------------|---------|
E|-0--3b-0-|-----------------|---------|

   Riff 5
e|----7--7--7--10---7--7---------|
B|----7--7--7--9b---7--7--9---7--|
G|-s7---------------------9b--7v-|
D|-------------------------------|
A|-------------------------------|
E|-------------------------------|


Riff Principal

Si algun día, te hice mal,
perdonáme nena y dejáme entrar.
Hace tiempo, te engañe

      B5
pero ahora nena quisiera volver.


E5   Riff 2     Riff principal
Volver a casa, volver a casa

                             Riff 4
volver a casa, volver a casa


Riff Principal / Riff 3

Con el tiempo volverás,
a extrañarme nena y me gustará.
Porque un día te engañe,
pero ahora nena quisiera volver.


E5   Riff 2     Riff principal
Volver a casa, volver a casa

                             Riff 4
volver a casa, volver a casa


Solo de armonica:

Riff Principal X4 / E5 / Riff Pr. X2 / E5 / Riff Pr. X1 / Riff 4


Si hace un día, te hice mal,
perdonáme nena y dejáme entrar.


Riff 5

Hace tiempo, te engañe

      B5
pero ahora nena quisiera volver.


Volver a casa, volver a casa
volver a casa, volver a casa


Fin: Riff 4
Suggest correction
Give kudos to tab author, rate the tab!
1 2 3 4 5
comments
print report bad tab
guest
You may want to rate the tab now too:
select rating
Wanna post a correction for this tab? Suggest correction