Oops, an error
Loading. Please wait.

Yo No Fui Tab

version 2
version 2

Whole song

17 views 1 this week
no commentswrite comment
1 2 3 4 5
3 more votes to show rating
add to favorites
launch autoscroll
font size
0
reset
how to read this tab
guitar tuner
Autoscroll
slow
fast
+/-
esc
set tempo
stop
Help us to improve Ultimate-Guitar.com Take our survey!
×
aca les dejo este tema... la otra transcripcion esta bastante bien
tambien, pero aca les dejo otra alternativa de como tocar la intro
y un par de cambios en el otro riff
suerte


  Riff 1
e|-----------------10-9--------------------------10-9----------
B|-------10-12-10-------12-10--------10----12-10------12-10----
G|-10h11-----------------------10h11----11---------------------
D|-------------------------------------------------------------
A|-------------------------------------------------------------
E|-------------------------------------------------------------


e|---------------------10-9---------------------------10--4s5--
B|-------11-----12-10--------12-10--------11----12-10-----4s5--
G|-10h11----12----------------------10h11----12----------------
D|-------------------------------------------------------------
A|-------------------------------------------------------------
E|-------------------------------------------------------------

  Riff 2          Riff 3
e|---------------|----10-------12p10----10----------------10-10------------
B|-9-----------10|-------10----------12----10----12p10----------12-10------
G|---10--10s11---|s11-------11----------------11-------11----------10h11---
D|---------------|-------------------------------------------------------12
A|---------------|---------------------------------------------------------
E|---------------|---------------------------------------------------------


       D5               Riff 2                         D5 C#5 B5 A5
Todos dicen: ?yo no fui?, siempre escucho: ?yo no fui?,

A5                                          D5  Riff 1
y nadie fue, y nadie fue, todos dicen yo no fui.

D5                                                    D5 C#5 B5 A5
Muchas cosas se están vendiendo en este gran almacén,

A5                                                         D5   Riff 3
y alguien se fue, y alguien se fue se fue diciendo: ?yo no fui?.


G5                    E5     G5
No soy un tipo que protesto pero no me jodas

              A5         A5 A5 G#5 G5
o te tapo el culo con esto.

G5                      E5             A5             D5  Riff 3
Juntos pusimos mucho esfuerzo y nadie sabe en qué se usó.


Los pibes ya no se bancan que nadie se haga cargo
alguien se quedó con un vuelto nos hizo mal los mandados
y a la hora de rendir, y a la hora de rendir se fue diciendo:
?yo no fui?... ...parece un circo, hermano...
y pasen, pasen al circo mas adrenalinico del mundo,
tenemos a los payasos que están re puestos
y no pueden hacer reír a nadie
y el domador tiene miedo de meterse a la jaula del león,
yo también...
yo no fui, no no, yo no fui, no no, yo no fui...


cualquier cosa.... lucasleibo@
Suggest correction
Give kudos to tab author, rate the tab!
1 2 3 4 5
comments
print report bad tab
guest
You may want to rate the tab now too:
select rating
Wanna post a correction for this tab? Suggest correction