Oops, an error
Loading. Please wait.

The Reptilian Brain bass

1,550 views 3 this week
1 commentread comment
1 2 3 4 5
x 3
add to favorites
×
Save as Personal and add changes to this tab that will be seen only by you. Learn more ›
×
You can save this tab as Personal to edit and correct it or add notes. All changes will be seen only by you. Learn more »
launch autoscroll
font size
0
reset
guitar tuner
edit
Autoscroll
slow
fast
+/-
esc
set tempo
stop
-------------------------------------------------------------------------------
                        THE REPTILIAN BRAIN - Intronaut
-------------------------------------------------------------------------------
Tabbed by: The Darth Trainman
Email: thedarthtrainman@gmail.com

Transcribed by ear. 9:00-13:00 might be a bit off.

Tuning: Standard 5 String, Fretless


Riff A: 7x (0:31, 1:07, 1:43, 2:54, 3:31, 4:04)
G|------------7/18~---21/18~-------------------------------------------------|
D|-----------------------------19-19/20~--16-16/17~----12/13-13-13-13-12-11~-|
A|--12/17~-------------------------------------------------------------------|
E|---------------------------------------------------------------------------|
B|---------------------------------------------------------------------------|

The fourth time, play Riff A1. 

Riff A1(2:20)
G|------7/18~-18-18-21/18~18-18~--------------------------------14h15p14h15--|
D|-----------------------------19-19/20~--16-16/17~-16h17p16h17--------------|
A|12/17~---------------------------------------------------------------------|
E|---------------------------------------------------------------------------|
B|---------------------------------------------------------------------------|

G|-----------------------|
D|-12/13-13-13-13-12-11~-|
A|-----------------------|
E|-----------------------|
B|-----------------------|
4:43: 
G|-------------|
D|12~----7/----|
A|-------------|
E|-------------|
B|-------------|

Riff B: 8x 
G|------14---11---12-----------14-11-12----|
D|-12------------------13---12----------13-|
A|-----------------------------------------|
E|-----------------------------------------|
B|-----------------------------------------|
5:39
Riff C: 2x (durations in 8th notes: 2 3 2 4 2 3 2 2 2 3 2 4 3 2 3 1)
G|-------------------------------------------|
D|-------------------------------------------|
A|-5-5--5-5---5-5--5-5-3-3--3-3---2--2-2--2-2|
E|-------------------------------------------|
B|-------------------------------------------|

Riff D: 2x Same Rhythm as Riff C, one octave down.
G|-------------------------------------------|
D|-------------------------------------------|
A|-------------------------------------------|
E|-------------------------------------------|
B|-3-3--3-3---3-3--3-3-1-1--1-1---0--0-0--0-0|

Riff C 2x
Riff D 2x
Riff C 2x
Riff D 2x

7:17

Riff E: 2x
G|-----------------------------------------|
D|---77---77----77---77--55---55-----44---4|
A|-55---55----55---55--33---33----22---22--|
E|-----------------------------------------|
B|-----------------------------------------|

Riff F: 2x
G|-----------------------------------------|
D|-----------------------------------------|
A|-----------------------------------------|
E|---55---55----55---55--33---33-----22---2|
B|-33---33----33---33--11---11----00---00--|

Riff E 2x
Riff F 2x

8:23
Riff G: 2x
G|-18-18--18-18---18-18--21-18-17-17--17-17---14--14-14--14--|
D|-----------------------------------------------------------|
A|-17-17--17-17---17-17--17-17-15-15--15-15---14--14-14--14--|
E|-----------------------------------------------------------|
B|-----------------------------------------------------------|

G|-18-18--18-18---18-18--21-18-19-19--19-19---14--14-14--14--|
D|-----------------------------------------------------------|
A|-17-17--17-17---17-17--17-17-15-15--15-15---14--14-14--14--|
E|-----------------------------------------------------------|
B|-----------------------------------------------------------|

8:53:

Riff C 2x

Riff D 2x

9:24

G|-------------------------------------------------------------|
D|-------------------------------------------------------------|
A|-1-1--1-1---0-0--0-0-3-3--3-3---2--2-2--21-1--1-1---0-0--0-0-|
E|-------------------------------------------------------------|
B|-------------------------------------------------------------|

G|-------------------------------------------------|
D|-------------------------------------------------|
A|-3-3--3-3---2--2-2--21-1-----------0-------------|
E|-------------------------------------------------|
B|-------------------------------------------------|

10:01

Riff E:
G|------------------------------|
D|------------------------------|
A|----1-----1---0-----4---4--45-|
E|-2-----2----2----2----2---2---|
B|------------------------------|
x2

G|------------------------------|
D|------------------------------|
A|----1-----1---0-----0---4--45-|
E|-2-----2----2----2----2---2---|
B|------------------------------|
x2

G|----------------|
D|----------------|
A|----------------|
E|----------------|
B|-2--2--2--2-2-2-|

Riff E x2

Riff F:
G|--------------|
D|--------------|
A|--4-3-4-5-4-3-|
E|--------------|
B|--------------|

Riff F x6

11:51
Riff G:
G|--------------------------|
D|--------------------------|
A|-3-—1-----1--1-1--------1-|
E|--------------------------|
B|--------------------------|

Riff G x2

Riff H:
G|--------------------------|
D|-2------------------------|
A|--—-1-----1--1-1--------1-|
E|--------------------------|
B|--------------------------|
Riff H x6

Riff G x2

Riff H x2

Riff G x2

Riff H x2

Riff I:
G|---------------------------------|
D|---------------------------------|
A|-3-—1-------------3--1-----------|
E|-----------5~-3~------------1~---|
B|-------------------------------4~|

Riff I x2  

13:27
Riff J:
G|-----------------------------------------------------------|
D|-----------------------------------------------------------|
A|-----7-------5-----3--------------7-------5-------3---6--6-|
E|-5-—5-553-3-3-31--1-1------6-5---5--3----3---1---1------6--|
B|----------------------4-4-4-4-----------------------4------|
                        O                             X
Riff J x1

Riff K:
G|----------------------------------------------------87---|
D|-----4----4--44----7----5--5-----4----4--4-----7------85-|
A|-2-----22---2--5-----33---3--2-----22---2--5-----56-----6|
E|---------------------------------------------------------|
B|---------------------------------------------------------|

Riff K x1

Riff J x1

Riff L:
G|---------------------------------------------------------|
D|---------------------------------------------------------|
A|----------------------------------------------------65---|
E|-----2----2--22----5----3--3-----2----2--2-----5------63-|
B|-0-----00---0--3-----11---1--0-----00---0--3-----34-----4|

Riff L x1

Riff J x1 (end at the X)

14:57
Riff M:
G|-15-----16\15----18------16------15-----16/15----18-----19-----|
D|-13-----14\13----16------14------13-----14/13----16-----17-----|
A|---------------------------------------------------------------|
E|---------------------------------------------------------------|
B|---------------------------------------------------------------|

G|-18------16------14------12------18---18/19-17----17/18-15----15/16-12------|
D|----------------------------------------------------------------------------|
A|-17------15------13------12------17---17/18-16----16/17-14----14/15-12------|
E|----------------------------------------------------------------------------|
B|----------------------------------------------------------------------------|

Riff M x1

Riff J x1

Riff K x1

Riff L x1

Riff J x1

Riff K x1

Riff J x1 (slow down at the end and end at O)
************************************


| /   slide up
| \   slide down
| h   hammer-on
| p   pull-off
| ~   vibrato
| +   harmonic
| x   Mute note
| b   Bend
| pb  Pre-bend
| br  Bend release
| pbr Pre-bend release
| brb Bend release bend

************************************
Suggest correction
Creating personal tab
Creating personal tab
You can edit any tab online and save it as your Personal.

You can edit, replace or remove any tab part or add personal notes – all changes will be seen only by you.

Personal tabs can be accessed anytime from any device, even offline.
Learn more »
Give kudos to tab author, rate the tab!
1 2 3 4 5
comments
print report bad tab
1 comment total.
+1 reply
FinderofNemo 337 May 21, 2016 07:19 PM

Great tab.

guest
You may want to rate the tab now too:
select rating
Wanna post a correction for this tab? Suggest correction