Oops, an error
Loading. Please wait.

Cruel Man Tab

version 3
version 3

Whole song

Interactive

716 views 1 this week
no commentswrite comment
1 2 3 4 5
2 more votes to show rating
add to favorites
launch autoscroll
font size
0
reset
how to read this tab
guitar tuner
Autoscroll
slow
fast
+/-
esc
set tempo
stop
Help us to improve Ultimate-Guitar.com Take our survey!
×
Author
Tuning: Drop C Sharp


Intro:
e|---------------------------------------------------------------------|
B|---------------------------------------------------------------------|
G|---------------------------------------------------------------------|
D|-10-10----10-10-10-10--10----10-10-10-10-----------------------------|
A|-8--8-----8--8--8--8---8-----8--8--8--8------------------------------|
C|-0--0-----0--0--0--0---8-----8--8--8--8------------------------------|
                                           Repeat 3x
After 3x 
e|------------------------------------------------------|
B|------------------------------------------------------|
G|------------------------------------------------------|
D|-7-7---7-7-7-7-10-------------------------------------|
A|-5-5---5-5-5-5-8--------------------------------------|
C|-5-5---5-5-5-5-8--------------------------------------|



Chorus   2x
e|
B|
G|         |10|
D|5|  |8|  |10|   |7|   |10|  |12|
A|5|  |8|  |8-|   |7|   |8|   |10|
C|5|  |8|  |0-|   |7|   |8|   |10|

This is after you played the chorus once..
e|------------------------------------------------------|
B|------------------------------------------------------|
G|------------------------------------------------------|
D|--0-0---8-8---7-7--0-0---10-10-10-10------------------|
A|--0-0---8-8---7-7--0-0---10-10-10-10------------------|
C|--0-0---8-8---7-7--0-0---10-10-10-10------------------|
Suggest correction
Give kudos to tab author, rate the tab!
1 2 3 4 5
comments
print report bad tab
guest
You may want to rate the tab now too:
select rating
Wanna post a correction for this tab? Suggest correction