Oops, an error
Loading. Please wait.

Que La Dejen Ir Al Baile Sola Chords

57 views 1 this week
no commentswrite comment
1 2 3 4 5
3 more votes to show rating
add to favorites
launch autoscroll
font size
0
reset
transpose
0
reset
simplify chords
display chords
guitar tuner
Autoscroll
slow
fast
+/-
esc
set tempo
stop
Help us to improve Ultimate-Guitar.com Take our survey!
×
Hola esta es mi 4ta transcripción para el átame, como me pidieron 
esta rola también pos aquí les vá pa` que se alegren un poco.

Canción: 'Que la dejen ir al baile sola'.
Intérprete: 'Esperanza Norte'.
Ritmo: Cumbia.

Acordes:
************************************************
______Sol.______                   No. cuerda. *
                                               *
--------------3----------------****1ra.        *
--------------3----------------****2da.        *
--------------0----------------****3ra.        *
--------------0----------------****4ta.        *
--------------2----------------****5ta.        *
--------------3----------------****6ta.        *
************************************************ 
______Re7.______                   No. cuerda. *
                                               *
--------------2----------------****1ra.        *
--------------1----------------****2da.        *
--------------2----------------****3ra.        *
--------------0----------------****4ta.        *
--------------0----------------****5ta.        *
--------------0----------------****6ta.        *
************************************************ 
______La.______                   No. cuerda.  *
                                               *
--------------0----------------****1ra.        *
--------------2----------------****2da.        *
--------------2----------------****3ra.        *
--------------2----------------****4ta.        *
--------------0----------------****5ta.        *
--------------0----------------****6ta.        *
************************************************ 
______Re.______                   No. cuerda.  *
                                               *
--------------2----------------****1ra.        *
--------------3----------------****2da.        *
--------------2----------------****3ra.        *
--------------0----------------****4ta.        *
--------------0----------------****5ta.        *
--------------0----------------****6ta.        *
************************************************ 

        D7              G
Que la dejen ir al baile sola
          D7          G
solita y sola solita y sola
        D7              G
Que la dejen ir al baile sola
                D7                G
la chica ya es grande y se sabe cuidar.

        D7              G
Que la dejen ir al baile sola
          D7          G
solita y sola solita y sola
        D7              G
Que la dejen ir al baile sola
                D7                G
la chica ya es grande y se sabe cuidar.

           D7             G
Todos los sábados pasa lo mismo
          D7                G
llega su padre y la saca a pasear
           A                 D
pero este sábado es mío y me animo
             A               D 
me acerco a ella y la saco a bailar.

        
        D7              G
Que la dejen ir al baile sola
          D7          G
solita y sola solita y sola
        D7              G
Que la dejen ir al baile sola
                D7                G
la chica ya es grande y se sabe cuidar.

        D7              G
Que la dejen ir al baile sola
          D7          G
solita y sola solita y sola
        D7              G
Que la dejen ir al baile sola
                D7                G
la chica ya es grande y se sabe cuidar.


-------*****MÚSICA*****-------


.....***se repite todo***.....

Esta se la dedico a mi novia María Fabiola Flores Reynaga
porque todavía no la dejan ir al baile sola conmigo.

Si tienen alguna duda escribanme a mi correo que es:

angel_85_mx@

Muchas gracias por aceptar esta rola y por consultarla 
en esta página.
Suggest correction
Give kudos to tab author, rate the tab!
1 2 3 4 5
comments
print report bad tab
guest
You may want to rate the tab now too:
select rating
Wanna post a correction for this tab? Suggest correction