Oops, an error
Loading. Please wait.

Ciro Y La F-100 tab

3 views 1 this week
no commentswrite comment
1 2 3 4 5
3 more votes to show rating
add to favorites
×
Save as Personal and add changes to this tab that will be seen only by you. Learn more ›
×
You can save this tab as Personal to edit and correct it or add notes. All changes will be seen only by you. Learn more »
launch autoscroll
font size
0
reset
how to read this tab
guitar tuner
edit
Autoscroll
slow
fast
+/-
esc
set tempo
stop
E: e|-----------|
   B|-----------|
   G|-----------|
   D|-----------|
   A|-------2-4-|
   E|-00-3-4----|

A: e|-----------|
   B|-----------|
   G|-----------|
   D|-------2-4-|
   A|-00-3-4----|
   E|-----------|


B: e|---------|
   B|---------|
   G|---------|
   D|---11-44-|
   A|-22------|
   E|---------|

A*: e|---------|
    B|---------|
    G|---------|
    D|------22-|
    A|-00-44---|
    E|---------|

E* (con B): e|------------------|
            B|------------------|
            G|------------------|
            D|------------2-4-4-|
            A|-------2-4-2--2-2-|
            E|-00-3-4-----------|

B del Final: e|--------------|
             B|--------------|
             G|--------------|
             D|---11-44-11---|
             A|-22--------0~-|
             E|--------------|

SUBIDA FINAL: e|-------------------------|
              B|-------------------------|
              G|-----------------------9-|
              D|-----------------------9-|
              A|-22-66-77-88-9-----6-7-7-|
              E|-00-44-55-66-7--7-9------|

[INTRO] En base de E

e|-----------4--|
B|---5-5---5--5-|
G|-/4-4--/4-4---|
D|--------------|
A|--------------|
E|--------------|

[VERSO]

E
Siempre atento tratando de ver
E
a cualquier hembra que pueda poner
       A                           E
y ciro va, ésta querrá o no querrá?
                 B               A*             E* (con B)
otra será, no importa el fracaso y ya se va a dar


Sale a la calle como un cazador
buscando sexo con toda pasión
no medirá el riesgo que habrá ni pensará
que pasará, no importa el fracaso y ya se va a dar

[ESTRIBILLO]

              E
Ya se va a dar

Ya se va a dar (Ya se va a dar)
              A
Ya se va a dar
              E
Ya se va a dar (Ya se va a dar)
            B A* E* (con B)
Ya se va a daaaaaaaaaaaaaar...

[SOLO] En base Verso x2

[VERSO]

Siempre contento le gusta jugar
ruleta rusa y el cuerpo arriesgar
y ciro va, ésta querrá o no querrá?
otra será, no importa el fracaso hoy ya se va a dar

Una F-100 del setenta va
por la avenida sin frenos está
y ciro va, ésta querrá o no querrá?
otra será, se encuentra con ciro y es el final

[ESTRIBILLO]

           E
Es el final

Es el final (Es el final)
           A
Es el final
           E
Es el final (Es el final)
         B del Final
Es el finaaaaal...
           SUBIDA FINAL
Es el final


Linda rola, debo el solo q es un "juego" en la base dl tema
cualkier cosa me mandan mail a
lalos_boca20@
Aguante el Rock n' roll y nada mas,
es algo que los chetos no pueden entender!

            
            
Suggest correction
Creating personal tab
Creating personal tab
You can edit any tab online and save it as your Personal.

You can edit, replace or remove any tab part or add personal notes – all changes will be seen only by you.

Personal tabs can be accessed anytime from any device, even offline.
Learn more »
Give kudos to tab author, rate the tab!
1 2 3 4 5
comments
print report bad tab
guest
Wanna post a correction for this tab? Suggest correction