Oops, an error
Loading. Please wait.

El Diluvio Y La Pasajera bass

152 views 3 this week
no commentswrite comment
1 2 3 4 5
3 more votes to show rating
add to favorites
×
Save as Personal and add changes to this tab that will be seen only by you. Learn more ›
×
You can save this tab as Personal to edit and correct it or add notes. All changes will be seen only by you. Learn more »
launch autoscroll
font size
0
reset
guitar tuner
edit
Autoscroll
slow
fast
+/-
esc
set tempo
stop
     ?Todo el mundo contento?        ?los recuerdo cesaron? ?ya se,los recreos?
G|----------------------------------------------------------------------------
D|-7------------7------5-------------------7----7---7--5----------5--5---4----
A|---0-0-0---------------7-5-7---0------0-----7----------7-5-7----------------
E|----------------------------------------------------------------------------

?sol?           ?esperan?                         ?a que el viento sople?
G|-------6-6---------------------------------------8-9-10----------------------
D|-----------------------------5h7------------8-10----------------------5------
A|-4----------0--4--5---5---5-5-----5-0--8-10-----------------7---7---0-------0
E|-----------------------------------------------------------------------------

?boca marfil?                               ?y el diluvio caiga contemplandote?
G|-----------------------------------------------------------------------------
D|-------------4----------4----------4-4---5-----------------------------------
A|3---3--2---2----2---2-2----2---2-2-----2----3--2-3--2-3--2-3--2-3--2-3--2-3--
E|-----------------------------------------------------------------------------

G|------------------
D|------------------
A|-5----------------
E|------------------

                           (2 veces)
G|--------------------------------------------------------------|----------
D|-------5h7-------5h7-------5h7-------5h7-------5h7---5h7---5h7|----------
A|0---0-----0---0-----0---0-----0---0-----0---0-----0-----0-----|0---------
E|--------------------------------------------------------------|----------

?con el rio la luna oye?                ?los claroscuros esconden perlas?
G|-9-7-6-7-6----6-----------6---7---9--------7p6h7---7-9---------9----9-
D|------------9----9------9---------------------------------------------
A|--------------------------------------------------------7--7--7--7---0
E|----------------------------------------------------------------------

?asi,que desde? ?volcan ya muerto?                                 ?los?
G|----------------------6-6-------------------------------------8-9-10----
D|5-------4------------------------------------------------8-10-----------
A|------0------0-4---4------0--4--5---5---5-5-5--5--0-8-10----------------
E|------------------------------------------------------------------------

?indigenas preparan otro rayo laser?
G|-----------------------------------------------------------------
D|-----------5---5--------------------4----------4----------4------
A|-7---7---0---------0-3---3--2---2-2----2---2-2----2---2-2---2--2-
E|-----------------------------------------------------------------

?para que el diluvio ya jamas los seque?
G|----------------------------------------------------
D|----------------------------------------------------
A|-3--2-3--2-3--2-3--2-3--2-3--2-3---5----------------
E|----------------------------------------------------

G|-------------------------------------------
D|--------5h7-------5h7-------5h7---5h7---5h7
A|0-0--0-----0---0-----0---0-----0-----0-----
E|-------------------------------------------

                                            ?y en que ternura estan?
G|--------------------------------------------------------------------
D|-------5h7-------5h7-------5h7---5h7----------------7--5--4---------
A|0---0-----0---0-----0---0-----0-----0--6-6--------------------------
E|--------------------------------------------------------------------
?que se duermen?                                   ?y tanto como para no ver?
G|-----------------------------------------------------------------------4-----
D|-----------2------2------2-------------------------------------------4---4---
A|-7--5--4-------4------4-----4--4---4p2-0-2-0--6--6--6-6--6--4--2-----------2-
E|-----------------------------------------------------------------------------

?una reina?                                                 ?pero ahora?
G|----------------------------------------7------7----------------------
D|---------2------2------2--------------------7---7--5------------------
A|-1---0-------4------4-----4--4-----------5------------7--7-7----------
E|---------------------------------7-5-7-5------------------------------

?bien?  ?puede usted?  ?mil veces golpear en sueños?              ?que?
G|-------12h14--14---12----12----------------------------------7---------
D|----------------------14-----------10------10--------4-5-6-7---7-------
A|-0----------------------------8---------8------8--5--------------5----5
E|---------------------------------------8-------------------------------

?puertas del diluvio no, no hay?
G|------------------------------------------------------------------
D|---------------------------5h7-----5h7-----5h7-----5h7---5h7---5h7
A|0-3--0-3--0-3--5--5--0-0------0-------0--0----0--0----0-----0-----
E|------------------------------------------------------------------

G|----------------------------------------------------9-----------------------
D|------5h7-----5h7-----5h7-----5h7---5h7---5h7---------7-7---9---9--7\5------
A|-0--0----0--0----0--0----0--0----0-----0-----0---0-------9-------------7----
E|----------------------------------------------------------------------------

2:43
   -                 -                 -                   -
G|---------------------------------------9--9-----------------------4---------
D|-7--7--7-7-7-7--7--9--9--9-9-7-------7-------7-----7------------4---4-------
A|-------------------------------9--7------------7-7----7\-2---2--------2--1--
E|----------------------------------------------------------------------------

   -                    -                  -                 -
G|-------------------------------4---------------------------------------------
D|--------5h7-7-7-5------------4---4-----------7--------7--------4--------4----
A|-0---0-------------7\-2---2--------2--1--0------0-0------0-2-------2-2-----2-
E|-----------------------------------------------------------------------------

   -                  -                   -                  -
G|-----------------------------------------------------------------------------
D|-----7---------7---------4--------4---------7---------7--------4--------4----
A|-0------0-0-0-----0-2-2-----2-2-2----2--0------0-0-0-----0-2------2-2-2----2-
E|-----------------------------------------------------------------------------

  -                  -                  -                   -
G|--------------------------4-----------------------------------4-------4------
D|----7---------7--------4----4------4-----5h7--------7-------4---4---4---4----
A|0------0-0-0-----0-2----------2-2-----0-------0-0-0----0--2-------2--------2-
E|-----------------------------------------------------------------------------

   -                   -                    -                 -
G|--------------------------4---2----------------------------------4-----------
D|---5h7--5------7-5------4---4---4-2h4---------7--------7-------4---4----4----
A|-0--------7-0------7-2-----------------2--0------0-0------0-2--------2-----2-
E|-----------------------------------------------------------------------------

  -                  -                  -                  -
G|-------------------4---4--2-----4---------9--------9--------10-------10------
D|---5h7-------7--------------4-2----2--7------7-7-7----7--9-----9-9-9----9-9--
A|0-------0-0------0-----------------------------------------------------------
E|-----------------------------------------------------------------------------

   -                  -                    -
G|-----9--------9--------------------------------------------------------------
D|-7------7-7-7----7--9---9---9-9-7--------------------------------------------
A|----------------------------------9--9---0-----------------------------------
E|-----------------------------------------------------------------------------

4:05                                              (7 veces)
G|------------------------4------|-------------------------------------4------|
D|-7--------7-----------4----4---|-----------7----------7------------4----4---|
A|---0--------0------2---------2-|-0----0--0---0---0--0---0---0---2---------2-|
E|-------------------------------|--------------------------------------------|

4:47                                  (4 veces)
G|-----------4------|-------------------------------------4------|
D|---------4----4---|-----------7----------7------------4----4---|
A|-0--0-2---------2-|-0----0--0---0---0--0---0---0---2---------2-|
E|------------------|--------------------------------------------|

5:09
G|-----------9-------------------------4------
D|-----------------------------------4----4---
A|-0----0--0---0---0--0-0-0---0---2---------2-
E|--------------------------------------------

               (9 veces)
G|-------------------------------------4------|
D|-----------7----------7------------4----4---|
A|-0----0--0---0---0--0---0---0---2---------2-|
E|--------------------------------------------|

5:59
G|-------------------------------------4------
D|-------------7-7--7-------7--7-----4----4---
A|-0--0---0--0--------5--0--------2---------2-
E|--------------------------------------------

G|--------------------------------------------
D|----------7------------7--5-----------------
A|-0---0--0---0---0-0--0-------7--5-7--0-0--2-
E|--------------------------------------------

G|-------------------------------------------
D|----------7----------7-7--5----------------
A|-0---0--0---0---0--0--------7--5-7-7-7-7-2-
E|-------------------------------------------

G|-----------------------9--9----9h11p9-9--
D|----------7------------------9-------9--9
A|-0---0--0---0---0--0-0-------------------
E|-----------------------------------------

                (2 veces)
G|--------------------------------9h11p9-9--|
D|-7---7--5---------------------9-------9--9|
A|----------7--5-7--5-7--0-0--0-------------|
E|------------------------------------------|

6:33
G|---------------------------------------4---4---
D|-7--7---5-----------------7----------4---4-----
A|----------7--5-7--0-0-0-0---0--0--2-----------2
E|-----------------------------------------------

G|----------------------------------------4------
D|---------------------------7----------4--------
A|-0---------------------------0--0--2----------2
E|-----------------------------------------------

G|------------------------------------4------
D|-----------7----------7-----------4----4---
A|-0----0--0---0---0--0---0---0---2--------2-
E|-------------------------------------------

G|---------9---9--9----9----------11---11--
D|------7----7-7-----7----7----9----9-9---9
A|-0-------------------------0-------------
E|-----------------------------------------

G|--------------------------------------------
D|-7----7--5------------------------7--5------
A|-----------7--5-7--5-7--5-0--0--0--------7--
E|--------------------------------------------

G|-------------------------------------
D|-----------7--7---7--5-7--7---7--7-7-
A|-0--0---0----------------------------
E|-------------------------------------

6:59
G|-----------------------------------------------------------------------
D|-7--5---7--------------------------------------------------------------
A|----------0----0|0|0|0|0--7--7---0----0|0|0|0|0--0--7---0----0|0|0|0|0-
E|-----------------------------------------------------------------------

G|---------------------------------16-----14-----12-----11-----
D|-7--5---7-----------------7--5-------------------------------
A|----------0----0|0|0|0|0-------------------------------------
E|-------------------------------------------------------------

?si ya no la esperan a cenar en casa?                  ?debe ser porque se?
G|------------------------------11-------9-----------------------------
D|-------------------------------------------------------9--------9----
A|-7-----------------------------------------------------------9-------
E|---------------------------------------------------------------------

?marcha y nunca regresa por la noche?  ?por las mañanas amanece en su cama?
G|----------------------------------------------------------------------------
D|-7-5---7----------------5---------------------------------------------------
A|-----7------7---5---5-5----5---7-------7---5--------4--------2------2-------
E|----------------------------------------------------------------------------

G|---------------------7------------------------------------------
D|-------------------7--------------------------------------------
A|-2---5------5-----------5---4------4-------4---3------3-------3-
E|----------------------------------------------------------------

?la mas breve brisa que recorre el patio?              ?debe ser quien la?
G|------------------------------11-------9-----------------------------
D|-------------------------------------------------------9--------9----
A|-7-----------------------------------------------------------9-------
E|---------------------------------------------------------------------

?desnuda cuando corre loca a dividirse con su boca tocando el suelo,el suelo?
G|----------------------------------------------------------------------------
D|-9-7----7------------------5-5----------------------------------------------
A|-----10--------7---5---5-5-----5---7-------7---5-----5---4--------2---------
E|----------------------------------------------------------------------------

azahar?
G|----------------------------------------------------------------------------
D|-------4--------------------------------------------------------------------
A|----------------2------2-------2---4------4-------4---5------5-------5------
E|-2----------2------------------------------------------------------------0--

Corregidas los renglones 62 85 y 89 de la anterior tab mia.

Los guiones a partir de los 2:43 al ser una parte larga los puse para que se
guien cuando cambia de La a Si.

     /: slide up (?arrastrar? hacia adelante)
     \: slide down (?arrastrar hacia atrás)
     p: pull off (ligado hacia atras)
     h: hammer on (ligado)
 x |x : tocar las dos notas consecutivamente rápido por Ej. 0|0

El diluvio y la pasajera (Spinetta)

Todo el mundo contento está
los recuerdos cesaron al fin.
Ya sé, los recreos entre el sol
esperan a que el viento sople fuerte
con su boca de marfil
y el diluvio caiga contemplándote.

Con el río la luna oye,
los claroscuros esconden perlas y es así
que desde el cuerpo del volcán
ya muerto,
los indígenas preparan otro rayo láser
para que el diluvio ya jamás los seque.

Y en qué ternura están
aquellos ignorados que se duermen
Y tanto como para no ver
al menos sin ser vista: una reina

Pero ahora bien:
Puede usted mil veces golpear en sueños
que puertas del diluvio mo, no hay

Si ya no la esperan a cenar en casa
debe ser porque se marcha
y nunca regresa por la noche
Sin embargo por las mañanas
amanece en su cama
La más leve brisa que recorre el patio
debe ser quién la desnuda
cuando corre loca a dividirse
con su boca tocando el suelo
El suelo de azahar

            
            
Suggest correction
Creating personal tab
Creating personal tab
You can edit any tab online and save it as your Personal.

You can edit, replace or remove any tab part or add personal notes – all changes will be seen only by you.

Personal tabs can be accessed anytime from any device, even offline.
Learn more »
Give kudos to tab author, rate the tab!
1 2 3 4 5
comments
print report bad tab
guest
Wanna post a correction for this tab? Suggest correction